0
SECTION
2
HEADER
9
$INSUNITS
70
4
9
$ACADVER
1
AC1014
9
$HANDSEED
5
FFFF
0
ENDSEC
0
SECTION
2
TABLES
0
TABLE
2
VPORT
5
8
100
AcDbSymbolTable
0
ENDTAB
0
TABLE
2
LTYPE
5
5
100
AcDbSymbolTable
0
LTYPE
5
14
100
AcDbSymbolTableRecord
100
AcDbLinetypeTableRecord
2
BYBLOCK
70
0
0
LTYPE
5
15
100
AcDbSymbolTableRecord
100
AcDbLinetypeTableRecord
2
BYLAYER
70
0
0
ENDTAB
0
TABLE
2
LAYER
5
2
100
AcDbSymbolTable
70
2
0
LAYER
5
50
100
AcDbSymbolTableRecord
100
AcDbLayerTableRecord
2
0
70
0
6
CONTINUOUS
0
ENDTAB
0
TABLE
2
STYLE
5
3
100
AcDbSymbolTable
70
1
0
STYLE
5
11
100
AcDbSymbolTableRecord
100
AcDbTextStyleTableRecord
2
STANDARD
70
0
0
ENDTAB
0
TABLE
2
VIEW
5
6
100
AcDbSymbolTable
70
0
0
ENDTAB
0
TABLE
2
UCS
5
7
100
AcDbSymbolTable
70
0
0
ENDTAB
0
TABLE
2
APPID
5
9
100
AcDbSymbolTable
70
2
0
APPID
5
12
100
AcDbSymbolTableRecord
100
AcDbRegAppTableRecord
2
ACAD
70
0
0
ENDTAB
0
TABLE
2
DIMSTYLE
5
A
100
AcDbSymbolTable
70
1
0
ENDTAB
0
TABLE
2
BLOCK_RECORD
5
1
100
AcDbSymbolTable
70
1
0
BLOCK_RECORD
5
1F
100
AcDbSymbolTableRecord
100
AcDbBlockTableRecord
2
*MODEL_SPACE
0
BLOCK_RECORD
5
1B
100
AcDbSymbolTableRecord
100
AcDbBlockTableRecord
2
*PAPER_SPACE
0
ENDTAB
0
ENDSEC
0
SECTION
2
BLOCKS
0
BLOCK
5
20
100
AcDbEntity
100
AcDbBlockBegin
2
*MODEL_SPACE
0
ENDBLK
5
21
100
AcDbEntity
100
AcDbBlockEnd
0
BLOCK
5
1C
100
AcDbEntity
100
AcDbBlockBegin
2
*PAPER_SPACE
0
ENDBLK
5
1D
100
AcDbEntity
100
AcDbBlockEnd
0
ENDSEC
0
SECTION
2
ENTITIES
0
LWPOLYLINE
5
100
100
AcDbEntity
8
0
100
AcDbPolyline
90
8
70
1
43
0.0
10
-131.00000000000006
20
-180
10
132
20
-180
42
0.41421356237309481
10
155.81520592638805
20
-156.18479407361195
10
155.81520592638805
20
156.18479407361195
42
0.41421356237309509
10
132.00000000000003
20
180
10
-131.18479407361207
20
180
42
0.41421356237309481
10
-155.00000000000011
20
156.18479407361201
10
-155.00000000000006
20
-156
42
0.41421356237309481
0
LWPOLYLINE
5
101
100
AcDbEntity
8
0
100
AcDbPolyline
90
4
70
1
43
0.0
10
-137.81385365587886
20
5.9892509901142326
10
137.81385365587886
20
5.9892509901142255
10
137.81385365587886
20
127.05227081124683
10
-137.81385365587886
20
127.05227081124683
0
LWPOLYLINE
5
102
100
AcDbEntity
8
0
100
AcDbPolyline
90
4
70
1
43
0.0
10
-96.445521918807131
20
-22.257642998939993
10
-137.81385365587886
20
-22.257642998939993
10
-137.81385365587886
20
-69.517832376095072
10
-96.445521918807131
20
-69.517832376095072
0
LWPOLYLINE
5
103
100
AcDbEntity
8
0
100
AcDbPolyline
90
4
70
1
43
0.0
10
-61.856192999369753
20
-22.257642998939975
10
-91.17275836401484
20
-22.257642998939975
10
-91.17275836401484
20
-69.517832376095072
10
-61.856192999369753
20
-69.517832376095072
0
LWPOLYLINE
5
104
100
AcDbEntity
8
0
100
AcDbPolyline
90
4
70
1
43
0.0
10
-32.53962763472466
20
-22.257642998939975
10
-55.950697818002396
20
-22.257642998939975
10
-55.950697818002396
20
-69.517832376095072
10
-32.53962763472466
20
-69.517832376095072
0
LWPOLYLINE
5
105
100
AcDbEntity
8
0
100
AcDbPolyline
90
4
70
1
43
0.0
10
8.3770175504634423
20
-22.257642998939975
10
-27.266864079932386
20
-22.257642998939975
10
-27.266864079932382
20
-69.517832376095072
10
8.3770175504634441
20
-69.517832376095072
0
LWPOLYLINE
5
106
100
AcDbEntity
8
0
100
AcDbPolyline
90
4
70
1
43
0.0
10
40.224509421408818
20
-22.257642998939975
10
13.227960020872347
20
-22.257642998939975
10
13.227960020872347
20
-69.517832376095072
10
40.224509421408818
20
-69.517832376095072
0
LWPOLYLINE
5
107
100
AcDbEntity
8
0
100
AcDbPolyline
90
4
70
1
43
0.0
10
70.384716954820703
20
-22.257642998939975
10
46.340915144967887
20
-22.257642998939975
10
46.340915144967887
20
-69.517832376095072
10
70.384716954820703
20
-69.517832376095072
0
LWPOLYLINE
5
108
100
AcDbEntity
8
0
100
AcDbPolyline
90
4
70
1
43
0.0
10
137.81385365587886
20
-22.257642998939975
10
106.29021213618806
20
-22.257642998939975
10
106.29021213618806
20
-69.517832376095072
10
137.81385365587886
20
-69.517832376095072
0
LWPOLYLINE
5
109
100
AcDbEntity
8
0
100
AcDbPolyline
90
4
70
1
43
0.0
10
-34.105492577066698
20
-98.857642998939994
10
-137.81385365587886
20
-98.857642998939994
10
-137.81385365587886
20
-150.40292985753101
10
-34.105492577066698
20
-150.40292985753101
0
LWPOLYLINE
5
110
100
AcDbEntity
8
0
100
AcDbPolyline
90
4
70
1
43
0.0
10
137.81385365587886
20
-98.85764299893998
10
-20.147572334222996
20
-98.85764299893998
10
-20.147572334222996
20
-150.40292985753101
10
137.81385365587886
20
-150.40292985753101
0
LINE
5
111
100
AcDbEntity
8
0
100
AcDbLine
10
-10.444401292736799
20
-1.6047840606881536
30
0
11
-10.444401292736799
21
-3.8020496856881536
31
0
0
SPLINE
5
112
100
AcDbEntity
8
0
100
AcDbSpline
70
0
71
3
72
9
73
5
74
0
42
0.000000001
43
0.0000000001
44
0.0000000001
40
0
40
0
40
0
40
0
40
0.75682206109616246
40
1.4840238723013273
40
1.4840238723013273
40
1.4840238723013273
40
1.4840238723013273
10
-10.444401292736799
20
-3.8020496856881536
30
0
10
-10.998836226319844
20
-6.3353575274280693
30
0
10
-12.086006803619512
20
-11.302825451902994
30
0
10
-15.868329830125187
20
-14.69204520027445
30
0
10
-17.721744863922865
20
-16.352831650943891
30
0
0
SPLINE
5
113
100
AcDbEntity
8
0
100
AcDbSpline
70
0
71
3
72
9
73
5
74
0
42
0.000000001
43
0.0000000001
44
0.0000000001
40
0
40
0
40
0
40
0
40
0.15024155806158848
40
0.26401501598954902
40
0.26401501598954902
40
0.26401501598954902
40
0.26401501598954902
10
-17.721744863922865
20
-16.352831650943891
30
0
10
-18.041498969751586
20
-15.967079271397647
30
0
10
-18.60339333807601
20
-15.289208102009489
30
0
10
-19.215694838594018
20
-14.656665706639407
30
0
10
-19.479557326669962
20
-14.384080697269575
30
0
0
SPLINE
5
114
100
AcDbEntity
8
0
100
AcDbSpline
70
0
71
3
72
9
73
5
74
0
42
0.000000001
43
0.0000000001
44
0.0000000001
40
0
40
0
40
0
40
0
40
0.3074118550923951
40
0.59971664628900612
40
0.59971664628900612
40
0.59971664628900612
40
0.59971664628900612
10
-19.479557326669962
20
-14.384080697269575
30
0
10
-18.660579290832381
20
-13.759230584416535
30
0
10
-17.062870051905175
20
-12.540237211500241
30
0
10
-15.851321824224014
20
-10.937650900182426
30
0
10
-15.260807363922865
20
-10.156542588443891
30
0
0
SPLINE
5
115
100
AcDbEntity
8
0
100
AcDbSpline
70
0
71
3
72
9
73
5
74
0
42
0.000000001
43
0.0000000001
44
0.0000000001
40
0
40
0
40
0
40
0
40
0.13510255213299935
40
0.28060681528712778
40
0.28060681528712778
40
0.28060681528712778
40
0.28060681528712778
10
-15.260807363922865
20
-10.156542588443891
30
0
10
-15.588865844473819
20
-9.8479781167474574
30
0
10
-16.270240429942163
20
-9.2070924166146106
30
0
10
-16.971433424296269
20
-8.5879439024914035
30
0
10
-17.33502605431822
20
-8.2668941509438909
30
0
0
LINE
5
116
100
AcDbEntity
8
0
100
AcDbLine
10
-17.33502605431822
20
-8.2668941509438927
30
0
11
-15.92877605431822
21
-6.5266602527810491
31
0
0
SPLINE
5
117
100
AcDbEntity
8
0
100
AcDbSpline
70
0
71
3
72
9
73
5
74
0
42
0.000000001
43
0.0000000001
44
0.0000000001
40
0
40
0
40
0
40
0
40
0.1256301274316691
40
0.23982242882807975
40
0.23982242882807975
40
0.23982242882807975
40
0.23982242882807975
10
-15.92877605431822
20
-6.5266602527810491
30
0
10
-15.601690536860771
20
-6.7881884363398726
30
0
10
-14.977298563097944
20
-7.2874343216247262
30
0
10
-14.365563871084587
20
-7.8021052145407506
30
0
10
-14.074284224446089
20
-8.0471675884438909
30
0
0
SPLINE
5
118
100
AcDbEntity
8
0
100
AcDbSpline
70
0
71
3
72
9
73
5
74
0
42
0.000000001
43
0.0000000001
44
0.0000000001
40
0
40
0
40
0
40
0
40
0.21152284028043211
40
0.42928261816321189
40
0.42928261816321189
40
0.42928261816321189
40
0.42928261816321189
10
-14.074284224446089
20
-8.0471675884438909
30
0
10
-13.802857261621115
20
-7.3941673233182881
30
0
10
-13.252000072453662
20
-6.0689125040148699
30
0
10
-12.987019817892026
20
-4.658252885966105
30
0
10
-12.852604775364668
20
-3.9426755201531805
30
0
0
LINE
5
119
100
AcDbEntity
8
0
100
AcDbLine
10
-12.852604775364666
20
-3.9426755201531805
30
0
11
-15.480533926422865
21
-3.9426755201531805
31
0
0
SPLINE
5
120
100
AcDbEntity
8
0
100
AcDbSpline
70
0
71
3
72
9
73
5
74
0
42
0.000000001
43
0.0000000001
44
0.0000000001
40
0
40
0
40
0
40
0
40
0.33264925302227438
40
0.65393287174658377
40
0.65393287174658377
40
0.65393287174658377
40
0.65393287174658377
10
-15.480533926422865
20
-3.9426755201531805
30
0
10
-15.930605429167969
20
-4.9598044144474684
30
0
10
-16.815370831787696
20
-6.9593099378756378
30
0
10
-18.095002392394996
20
-8.7319276838449973
30
0
10
-18.723697899515898
20
-9.6028321277810491
30
0
0
SPLINE
5
121
100
AcDbEntity
8
0
100
AcDbSpline
70
0
71
3
72
9
73
5
74
0
42
0.000000001
43
0.0000000001
44
0.0000000001
40
0
40
0
40
0
40
0
40
0.16384541896314767
40
0.28079689310339745
40
0.28079689310339745
40
0.28079689310339745
40
0.28079689310339745
10
-18.723697899515898
20
-9.6028321277810491
30
0
10
-18.939562539638089
20
-9.1007796870214683
30
0
10
-19.30950953395001
20
-8.2403664607476443
30
0
10
-19.752206114803425
20
-7.4152437518327963
30
0
10
-19.936588559906156
20
-7.0715814125253118
30
0
0
SPLINE
5
122
100
AcDbEntity
8
0
100
AcDbSpline
70
0
71
3
72
9
73
5
74
0
42
0.000000001
43
0.0000000001
44
0.0000000001
40
0
40
0
40
0
40
0
40
0.43089391710697422
40
0.90342040897382359
40
0.90342040897382359
40
0.90342040897382359
40
0.90342040897382359
10
-19.936588559906156
20
-7.0715814125253118
30
0
10
-19.165172441589991
20
-5.8482525256491869
30
0
10
-17.547806687677124
20
-3.2833978377220219
30
0
10
-16.831025967408863
20
-0.33461846061310085
30
0
10
-16.45611980431822
20
1.2077159393118464
30
0
0
LINE
5
123
100
AcDbEntity
8
0
100
AcDbLine
10
-16.456119804318224
20
1.2077159393118468
30
0
11
-14.012760906155378
21
0.7858414161490046
31
0
0
SPLINE
5
124
100
AcDbEntity
8
0
100
AcDbSpline
70
0
71
3
72
9
73
5
74
0
42
0.000000001
43
0.0000000001
44
0.0000000001
40
0
40
0
40
0
40
0
40
0.12534280345804288
40
0.24733758165758726
40
0.24733758165758726
40
0.24733758165758726
40
0.24733758165758726
10
-14.012760906155378
20
0.7858414161490046
30
0
10
-14.108626665003838
20
0.37908769010555898
30
0
10
-14.297797517284039
20
-0.42355498385916679
30
0
10
-14.530698901448133
20
-1.2146103448340972
30
0
10
-14.645573286946089
20
-1.6047840606881536
30
0
0
LINE
5
125
100
AcDbEntity
8
0
100
AcDbLine
10
-14.645573286946089
20
-1.6047840606881536
30
0
11
-10.444401292736799
21
-1.6047840606881536
31
0
0
SPLINE
5
126
100
AcDbEntity
8
0
100
AcDbSpline
70
0
71
3
72
9
73
5
74
0
42
0.000000001
43
0.0000000001
44
0.0000000001
40
0
40
0
40
0
40
0
40
0.33242212612387001
40
0.61792776334306876
40
0.61792776334306876
40
0.61792776334306876
40
0.61792776334306876
10
-6.1201832579925375
20
-3.7317364704324163
30
0
10
-5.3858470071844327
20
-4.5619522702591979
30
0
10
-4.0208152558547976
20
-6.1052111329014425
30
0
10
-2.7515520152886386
20
-7.7280290868733985
30
0
10
-2.1651051329925375
20
-8.4778314125253118
30
0
0
LINE
5
127
100
AcDbEntity
8
0
100
AcDbLine
10
-2.1651051329925379
20
-8.4778314125253118
30
0
11
-4.1338548945739584
21
-10.077440072269575
31
0
0
SPLINE
5
128
100
AcDbEntity
8
0
100
AcDbSpline
70
0
71
3
72
9
73
5
74
0
42
0.000000001
43
0.0000000001
44
0.0000000001
40
0
40
0
40
0
40
0
40
0.25009142365374315
40
0.48664663413276366
40
0.48664663413276366
40
0.48664663413276366
40
0.48664663413276366
10
-4.1338548945739584
20
-10.077440072269575
30
0
10
-4.6152714298352642
20
-9.3966306996666447
30
0
10
-5.5520478017637043
20
-8.0718608022311891
30
0
10
-6.5612550144087916
20
-6.8014317276550624
30
0
10
-7.0518229293182211
20
-6.1838858616067327
30
0
0
LINE
5
129
100
AcDbEntity
8
0
100
AcDbLine
10
-7.0518229293182211
20
-6.1838858616067327
30
0
11
-7.0518229293182211
21
-16.264941025943891
31
0
0
LINE
5
130
100
AcDbEntity
8
0
100
AcDbLine
10
-7.0518229293182211
20
-16.264941025943891
30
0
11
-9.5127604293182202
21
-16.264941025943891
31
0
0
LINE
5
131
100
AcDbEntity
8
0
100
AcDbLine
10
-9.5127604293182202
20
-16.264941025943891
30
0
11
-9.5127604293182202
21
1.0319346893118464
31
0
0
LINE
5
132
100
AcDbEntity
8
0
100
AcDbLine
10
-9.5127604293182202
20
1.0319346893118464
30
0
11
-7.0518229293182211
21
1.0319346893118464
31
0
0
LINE
5
133
100
AcDbEntity
8
0
100
AcDbLine
10
-7.0518229293182211
20
1.0319346893118464
30
0
11
-7.0518229293182211
21
-4.4524406683160223
31
0
0
LINE
5
134
100
AcDbEntity
8
0
100
AcDbLine
10
-7.0518229293182211
20
-4.4524406683160223
30
0
11
-6.1201832579925375
21
-3.7317364704324163
31
0
0
LWPOLYLINE
5
135
100
AcDbEntity
8
0
100
AcDbPolyline
90
16
70
1
43
0.0
10
11.036064834658831
20
-3.2219713222695745
10
5.2704407883331461
20
-3.2219713222695745
10
5.2704407883331461
20
-5.1907210838509954
10
19.262628765170305
20
-5.1907210838509954
10
19.262628765170305
20
-3.2219713222695745
10
13.497002334658831
20
-3.2219713222695745
10
13.497002334658831
20
-2.2200184356881536
10
20.651300163333147
20
-2.2200184356881536
10
20.651300163333147
20
-0.18095665094389091
10
13.497002334658831
20
-0.18095665094389091
10
13.497002334658831
20
1.0846693027304255
10
11.036064834658831
20
1.0846693027304255
10
11.036064834658831
20
-0.18095665094389091
10
3.9520814133331461
20
-0.18095665094389091
10
3.9520814133331461
20
-2.2200184356881536
10
11.036064834658831
20
-2.2200184356881536
0
LWPOLYLINE
5
136
100
AcDbEntity
8
0
100
AcDbPolyline
90
8
70
1
43
0.0
10
4.0223934364959879
20
-6.1223619472695745
10
4.0223934364959879
20
-9.8313467991067327
10
6.3427068901703043
20
-9.8313467991067327
10
6.3427068901703043
20
-8.0911129009438909
10
18.330986709658831
20
-8.0911129009438909
10
18.330986709658831
20
-9.8313467991067327
10
20.651300163333147
20
-9.8313467991067327
10
20.651300163333147
20
-6.1223619472695745
0
SPLINE
5
137
100
AcDbEntity
8
0
100
AcDbSpline
70
0
71
3
72
9
73
5
74
0
42
0.000000001
43
0.0000000001
44
0.0000000001
40
0
40
0
40
0
40
0
40
0.05865028121989569
40
0.11952354077698943
40
0.11952354077698943
40
0.11952354077698943
40
0.11952354077698943
10
16.309502334658831
20
-13.048143912525312
30
0
10
16.344061980418644
20
-13.263455422824663
30
0
10
16.414491160693586
20
-13.702239236742502
30
0
10
16.857379172926116
20
-13.758017229577643
30
0
10
17.082941742007463
20
-13.786424924106733
30
0
0
LINE
5
138
100
AcDbEntity
8
0
100
AcDbLine
10
17.08294174200746
20
-13.786424924106734
30
0
11
17.698176117007463
21
-13.786424924106733
31
0
0
SPLINE
5
139
100
AcDbEntity
8
0
100
AcDbSpline
70
0
71
3
72
9
73
5
74
0
42
0.000000001
43
0.0000000001
44
0.0000000001
40
0
40
0
40
0
40
0
40
0.050546723052990246
40
0.092345928870813138
40
0.092345928870813138
40
0.092345928870813138
40
0.092345928870813138
10
17.698176117007463
20
-13.786424924106733
30
0
10
17.876420046982066
20
-13.777066584999256
30
0
10
18.202061360303862
20
-13.759969442684763
30
0
10
18.396696288062802
20
-13.502886966182178
30
0
10
18.484795303408831
20
-13.386521865100995
30
0
0
SPLINE
5
140
100
AcDbEntity
8
0
100
AcDbSpline
70
0
71
3
72
9
73
5
74
0
42
0.000000001
43
0.0000000001
44
0.0000000001
40
0
40
0
40
0
40
0
40
0.087778644303496967
40
0.26646539418971227
40
0.26646539418971227
40
0.26646539418971227
40
0.26646539418971227
10
18.484795303408831
20
-13.386521865100995
30
0
10
18.548672315373665
20
-13.10058113481986
30
0
10
18.742580677799737
20
-12.232564659812379
30
0
10
18.780301891936073
20
-11.342362268976578
30
0
10
18.805597038333147
20
-10.745409060688154
30
0
0
SPLINE
5
141
100
AcDbEntity
8
0
100
AcDbSpline
70
0
71
3
72
9
73
5
74
0
42
0.000000001
43
0.0000000001
44
0.0000000001
40
0
40
0
40
0
40
0
40
0.13244735226901283
40
0.23875989371452883
40
0.23875989371452883
40
0.23875989371452883
40
0.23875989371452883
10
18.805597038333147
20
-10.745409060688154
30
0
10
19.211729638328464
20
-10.91923688045123
30
0
10
19.943855836003884
20
-11.232592421805986
30
0
10
20.700921486951952
20
-11.479305462466456
30
0
10
21.038019867007463
20
-11.589159299106733
30
0
0
SPLINE
5
142
100
AcDbEntity
8
0
100
AcDbSpline
70
0
71
3
72
9
73
5
74
0
42
0.000000001
43
0.0000000001
44
0.0000000001
40
0
40
0
40
0
40
0
40
0.13869453785632019
40
0.24735083571924016
40
0.24735083571924016
40
0.24735083571924016
40
0.24735083571924016
10
21.038019867007463
20
-11.589159299106733
30
0
10
20.968131227081429
20
-12.04626358277797
30
0
10
20.843490316486296
20
-12.86147323936917
30
0
10
20.676370722743421
20
-13.668998934658426
30
0
10
20.602958412234514
20
-14.023728896350995
30
0
0
SPLINE
5
143
100
AcDbEntity
8
0
100
AcDbSpline
70
0
71
3
72
9
73
5
74
0
42
0.000000001
43
0.0000000001
44
0.0000000001
40
0
40
0
40
0
40
0
40
0.086194864949026867
40
0.16523243054519923
40
0.16523243054519923
40
0.16523243054519923
40
0.16523243054519923
10
20.602958412234514
20
-14.023728896350995
30
0
10
20.520515711143222
20
-14.305850054442351
30
0
10
20.362476042653888
20
-14.846666084344232
30
0
10
19.942517054451073
20
-15.220430043025024
30
0
10
19.741633148257463
20
-15.399216939182416
30
0
0
SPLINE
5
144
100
AcDbEntity
8
0
100
AcDbSpline
70
0
71
3
72
9
73
5
74
0
42
0.000000001
43
0.0000000001
44
0.0000000001
40
0
40
0
40
0
40
0
40
0.08383151492813079
40
0.18261542656811847
40
0.18261542656811847
40
0.18261542656811847
40
0.18261542656811847
10
19.741633148257463
20
-15.399216939182416
30
0
10
19.492398019363343
20
-15.533561178184865
30
0
10
18.949473566455882
20
-15.826211627522856
30
0
10
18.331363181697174
20
-15.848555847516135
30
0
10
17.997002811495989
20
-15.860642720432416
30
0
0
LINE
5
145
100
AcDbEntity
8
0
100
AcDbLine
10
17.997002811495985
20
-15.860642720432418
30
0
11
15.957939834658831
21
-15.860642720432416
31
0
0
SPLINE
5
146
100
AcDbEntity
8
0
100
AcDbSpline
70
0
71
3
72
9
73
5
74
0
42
0.000000001
43
0.0000000001
44
0.0000000001
40
0
40
0
40
0
40
0
40
0.16718226995883578
40
0.33769975472794389
40
0.33769975472794389
40
0.33769975472794389
40
0.33769975472794389
10
15.957939834658831
20
-15.860642720432416
30
0
10
15.342722437814484
20
-15.767048740842529
30
0
10
14.100014320082535
20
-15.577993621784159
30
0
10
13.932931382010452
20
-14.329132105560454
30
0
10
13.848564834658831
20
-13.698534299106733
30
0
0
LINE
5
147
100
AcDbEntity
8
0
100
AcDbLine
10
13.848564834658831
20
-13.698534299106733
30
0
11
13.848564834658831
21
-11.026658345432416
31
0
0
LINE
5
148
100
AcDbEntity
8
0
100
AcDbLine
10
13.848564834658831
20
-11.026658345432416
30
0
11
10.227472992007463
21
-11.026658345432416
31
0
0
SPLINE
5
149
100
AcDbEntity
8
0
100
AcDbSpline
70
0
71
3
72
9
73
5
74
0
42
0.000000001
43
0.0000000001
44
0.0000000001
40
0
40
0
40
0
40
0
40
0.34936786839557188
40
0.76793446144392918
40
0.76793446144392918
40
0.76793446144392918
40
0.76793446144392918
10
10.227472992007463
20
-11.026658345432416
30
0
10
9.9132266786091261
20
-12.217789391444057
30
0
10
9.2224917963530029
20
-14.835976869670912
30
0
10
6.6532438677181105
20
-15.794970228309687
30
0
10
5.2528621864959879
20
-16.317674447269575
30
0
0
SPLINE
5
150
100
AcDbEntity
8
0
100
AcDbSpline
70
0
71
3
72
9
73
5
74
0
42
0.000000001
43
0.0000000001
44
0.0000000001
40
0
40
0
40
0
40
0
40
0.14291878241380138
40
0.26654820435176091
40
0.26654820435176091
40
0.26654820435176091
40
0.26654820435176091
10
5.2528621864959879
20
-16.317674447269575
30
0
10
5.0200363366841039
20
-15.901892687369227
30
0
10
4.585808510600704
20
-15.126446104128872
30
0
10
4.1048471465967795
20
-14.379133855509281
30
0
10
3.8817693901703043
20
-14.032518197269575
30
0
0
SPLINE
5
151
100
AcDbEntity
8
0
100
AcDbSpline
70
0
71
3
72
9
73
5
74
0
42
0.000000001
43
0.0000000001
44
0.0000000001
40
0
40
0
40
0
40
0
40
0.19823778842875905
40
0.34248966123803587
40
0.34248966123803587
40
0.34248966123803587
40
0.34248966123803587
10
3.8817693901703043
20
-14.032518197269575
30
0
10
4.5293010734741124
20
-13.865400964047955
30
0
10
5.6480227289838725
20
-13.576677380886712
30
0
10
6.5759143522178265
20
-12.895565584885588
30
0
10
6.9667293739959879
20
-12.608690787525312
30
0
0
SPLINE
5
152
100
AcDbEntity
8
0
100
AcDbSpline
70
0
71
3
72
9
73
5
74
0
42
0.000000001
43
0.0000000001
44
0.0000000001
40
0
40
0
40
0
40
0
40
0.1243996220484789
40
0.26973783300143822
40
0.26973783300143822
40
0.26973783300143822
40
0.26973783300143822
10
6.9667293739959879
20
-12.608690787525312
30
0
10
7.2201078117798589
20
-12.26879940773153
30
0
10
7.7695126219526633
20
-11.531807102355279
30
0
10
7.813270310324345
20
-10.609531320058831
30
0
10
7.8368475151703043
20
-10.112597275943891
30
0
0
LINE
5
153
100
AcDbEntity
8
0
100
AcDbLine
10
7.8368475151703034
20
-10.112597275943891
30
0
11
7.8368475151703043
21
-9.0227525722695745
31
0
0
LINE
5
154
100
AcDbEntity
8
0
100
AcDbLine
10
7.8368475151703043
20
-9.0227525722695745
30
0
11
16.309502334658831
21
-9.0227525722695745
31
0
0
LINE
5
155
100
AcDbEntity
8
0
100
AcDbLine
10
16.309502334658831
20
-9.0227525722695745
30
0
11
16.309502334658831
21
-13.048143912525312
31
0
0
SPLINE
5
156
100
AcDbEntity
8
0
100
AcDbSpline
70
0
71
3
72
9
73
5
74
0
42
0.000000001
43
0.0000000001
44
0.0000000001
40
0
40
0
40
0
40
0
40
0.12197310582758418
40
0.22448484418846665
40
0.22448484418846665
40
0.22448484418846665
40
0.22448484418846665
10
-128.53830715629317
20
-72.6779203476069
30
0
10
-128.28090615813878
20
-72.992858731630136
30
0
10
-127.80717366954971
20
-73.57248563861701
30
0
10
-127.37722345368284
20
-74.185221765899229
30
0
10
-127.18088528129316
20
-74.4650297226069
30
0
0
SPLINE
5
157
100
AcDbEntity
8
0
100
AcDbSpline
70
0
71
3
72
9
73
5
74
0
42
0.000000001
43
0.0000000001
44
0.0000000001
40
0
40
0
40
0
40
0
40
0.074489701244069062
40
0.1381406785709951
40
0.1381406785709951
40
0.1381406785709951
40
0.1381406785709951
10
-127.18088528129316
20
-74.4650297226069
30
0
10
-127.38992484559969
20
-74.599054206969356
30
0
10
-127.77758739195455
20
-74.847601763285837
30
0
10
-128.15796344248542
20
-75.107154535527656
30
0
10
-128.33322903129317
20
-75.2267484726069
30
0
0
SPLINE
5
158
100
AcDbEntity
8
0
100
AcDbSpline
70
0
71
3
72
9
73
5
74
0
42
0.000000001
43
0.0000000001
44
0.0000000001
40
0
40
0
40
0
40
0
40
0.11769122896855631
40
0.22431809222393809
40
0.22431809222393809
40
0.22431809222393809
40
0.22431809222393809
10
-128.33322903129317
20
-75.2267484726069
30
0
10
-128.54378917868007
20
-74.895611516134181
30
0
10
-128.94511433242491
20
-74.264468388546902
30
0
10
-129.38425466628817
20
-73.659055390939741
30
0
10
-129.59299465629317
20
-73.3712797226069
30
0
0
LINE
5
159
100
AcDbEntity
8
0
100
AcDbLine
10
-129.59299465629317
20
-73.371279722606914
30
0
11
-128.53830715629317
21
-72.6779203476069
31
0
0
SPLINE
5
160
100
AcDbEntity
8
0
100
AcDbSpline
70
0
71
3
72
9
73
5
74
0
42
0.000000001
43
0.0000000001
44
0.0000000001
40
0
40
0
40
0
40
0
40
0.094169077392260173
40
0.15374901966111088
40
0.15374901966111088
40
0.15374901966111088
40
0.15374901966111088
10
-120.75510403129316
20
-78.1954984726069
30
0
10
-120.77122218224258
20
-78.509043140998102
30
0
10
-120.79753814472039
20
-79.020964747538954
30
0
10
-120.84789479657704
20
-79.531040106700516
30
0
10
-120.86740871879316
20
-79.7287015976069
30
0
0
SPLINE
5
161
100
AcDbEntity
8
0
100
AcDbSpline
70
0
71
3
72
9
73
5
74
0
42
0.000000001
43
0.0000000001
44
0.0000000001
40
0
40
0
40
0
40
0
40
0.038794216109447603
40
0.073426114519160993
40
0.073426114519160993
40
0.073426114519160993
40
0.073426114519160993
10
-120.86740871879316
20
-79.7287015976069
30
0
10
-120.89087032249208
20
-79.858487865317173
30
0
10
-120.93527628226553
20
-80.104135343514002
30
0
10
-121.09486979072038
20
-80.295283583861931
30
0
10
-121.17014309379316
20
-80.3854398788569
30
0
0
SPLINE
5
162
100
AcDbEntity
8
0
100
AcDbSpline
70
0
71
3
72
9
73
5
74
0
42
0.000000001
43
0.0000000001
44
0.0000000001
40
0
40
0
40
0
40
0
40
0.034328301093752844
40
0.072549615373242782
40
0.072549615373242782
40
0.072549615373242782
40
0.072549615373242782
10
-121.17014309379316
20
-80.3854398788569
30
0
10
-121.26356168882589
20
-80.455310641964758
30
0
10
-121.46099304786182
20
-80.602975886902627
30
0
10
-121.70702826513077
20
-80.626796640895449
30
0
10
-121.83664700004316
20
-80.6393461288569
30
0
0
SPLINE
5
163
100
AcDbEntity
8
0
100
AcDbSpline
70
0
71
3
72
9
73
5
74
0
42
0.000000001
43
0.0000000001
44
0.0000000001
40
0
40
0
40
0
40
0
40
0.058786013197788659
40
0.15162098745653174
40
0.15162098745653174
40
0.15162098745653174
40
0.15162098745653174
10
-121.83664700004316
20
-80.6393461288569
30
0
10
-122.03256413918018
20
-80.64360015299809
30
0
10
-122.53787396510204
20
-80.654572139459873
30
0
10
-123.0432977930127
20
-80.649671144307135
30
0
10
-123.35276028129316
20
-80.6466703476069
30
0
0
SPLINE
5
164
100
AcDbEntity
8
0
100
AcDbSpline
70
0
71
3
72
9
73
5
74
0
42
0.000000001
43
0.0000000001
44
0.0000000001
40
0
40
0
40
0
40
0
40
0.045398341456967972
40
0.096536333056907522
40
0.096536333056907522
40
0.096536333056907522
40
0.096536333056907522
10
-123.35276028129316
20
-80.6466703476069
30
0
10
-123.37862573210879
20
-80.497551511561483
30
0
10
-123.43362676726713
20
-80.180460949229285
30
0
10
-123.50205749090867
20
-79.865989193761777
30
0
10
-123.53830715629316
20
-79.6994047226069
30
0
0
SPLINE
5
165
100
AcDbEntity
8
0
100
AcDbSpline
70
0
71
3
72
9
73
5
74
0
42
0.000000001
43
0.0000000001
44
0.0000000001
40
0
40
0
40
0
40
0
40
0.057935449952827435
40
0.10750561719952409
40
0.10750561719952409
40
0.10750561719952409
40
0.10750561719952409
10
-123.53830715629316
20
-79.6994047226069
30
0
10
-123.34549253808399
20
-79.710776579117507
30
0
10
-122.98770374810231
20
-79.731878313096814
30
0
10
-122.62933157320093
20
-79.736387886523744
30
0
10
-122.46408840629316
20
-79.7384672226069
30
0
0
SPLINE
5
166
100
AcDbEntity
8
0
100
AcDbSpline
70
0
71
3
72
9
73
5
74
0
42
0.000000001
43
0.0000000001
44
0.0000000001
40
0
40
0
40
0
40
0
40
0.036626383081561971
40
0.0574263906320936
40
0.0574263906320936
40
0.0574263906320936
40
0.0574263906320936
10
-122.46408840629316
20
-79.7384672226069
30
0
10
-122.33858605705457
20
-79.742187626916234
30
0
10
-122.14181131911302
20
-79.748020837110673
30
0
10
-121.97334836950886
20
-79.651395053177708
30
0
10
-121.91233059379316
20
-79.6163969101069
30
0
0
SPLINE
5
167
100
AcDbEntity
8
0
100
AcDbSpline
70
0
71
3
72
9
73
5
74
0
42
0.000000001
43
0.0000000001
44
0.0000000001
40
0
40
0
40
0
40
0
40
0.022788274783440515
40
0.06269051874994723
40
0.06269051874994723
40
0.06269051874994723
40
0.06269051874994723
10
-121.91233059379316
20
-79.6163969101069
30
0
10
-121.88255320079571
20
-79.545973769206569
30
0
10
-121.8006356255615
20
-79.352239786401924
30
0
10
-121.79429564896695
20
-79.140693587803199
30
0
10
-121.79026028129316
20
-79.0060453476069
30
0
0
LINE
5
168
100
AcDbEntity
8
0
100
AcDbLine
10
-121.79026028129316
20
-79.0060453476069
30
0
11
-123.35276028129316
21
-79.0060453476069
31
0
0
LINE
5
169
100
AcDbEntity
8
0
100
AcDbLine
10
-123.35276028129316
20
-79.0060453476069
30
0
11
-123.01096340629316
21
-77.9220609726069
31
0
0
LINE
5
170
100
AcDbEntity
8
0
100
AcDbLine
10
-123.01096340629316
20
-77.9220609726069
30
0
11
-124.35861965629316
21
-77.9220609726069
31
0
0
SPLINE
5
171
100
AcDbEntity
8
0
100
AcDbSpline
70
0
71
3
72
9
73
5
74
0
42
0.000000001
43
0.0000000001
44
0.0000000001
40
0
40
0
40
0
40
0
40
0.17859833718964327
40
0.3645516146210499
40
0.3645516146210499
40
0.3645516146210499
40
0.3645516146210499
10
-124.35861965629316
20
-77.9220609726069
30
0
10
-124.49127811529684
20
-78.52961459249758
30
0
10
-124.76205810229962
20
-79.769741777247489
30
0
10
-125.84648335135226
20
-80.434525502542556
30
0
10
-126.39963528129316
20
-80.7736234726069
30
0
0
SPLINE
5
172
100
AcDbEntity
8
0
100
AcDbSpline
70
0
71
3
72
9
73
5
74
0
42
0.000000001
43
0.0000000001
44
0.0000000001
40
0
40
0
40
0
40
0
40
0.056299166914093382
40
0.12381674119713949
40
0.12381674119713949
40
0.12381674119713949
40
0.12381674119713949
10
-126.39963528129316
20
-80.7736234726069
30
0
10
-126.51899271815086
20
-80.628686401334093
30
0
10
-126.78149125373156
20
-80.309931492028923
30
0
10
-127.07154589512334
20
-80.015958771818021
30
0
10
-127.22971340629316
20
-79.8556547226069
30
0
0
SPLINE
5
173
100
AcDbEntity
8
0
100
AcDbSpline
70
0
71
3
72
9
73
5
74
0
42
0.000000001
43
0.0000000001
44
0.0000000001
40
0
40
0
40
0
40
0
40
0.14868489780209437
40
0.27399142627921369
40
0.27399142627921369
40
0.27399142627921369
40
0.27399142627921369
10
-127.22971340629316
20
-79.8556547226069
30
0
10
-126.75750913735499
20
-79.636576304212952
30
0
10
-125.88734731827293
20
-79.232866114341149
30
0
10
-125.57882157998309
20
-78.333414048334305
30
0
10
-125.43772121879316
20
-77.9220609726069
30
0
0
LINE
5
174
100
AcDbEntity
8
0
100
AcDbLine
10
-125.43772121879316
20
-77.922060972606914
30
0
11
-126.27268215629316
21
-77.9220609726069
31
0
0
LINE
5
175
100
AcDbEntity
8
0
100
AcDbLine
10
-126.27268215629316
20
-77.9220609726069
30
0
11
-126.27268215629316
21
-77.1017484726069
31
0
0
SPLINE
5
176
100
AcDbEntity
8
0
100
AcDbSpline
70
0
71
3
72
9
73
5
74
0
42
0.000000001
43
0.0000000001
44
0.0000000001
40
0
40
0
40
0
40
0
40
0.028740236034127543
40
0.057678882496846537
40
0.057678882496846537
40
0.057678882496846537
40
0.057678882496846537
10
-126.27268215629316
20
-77.1017484726069
30
0
10
-126.35624423089077
20
-77.148617148639559
30
0
10
-126.52394525729096
20
-77.242678062212462
30
0
10
-126.69478230167942
20
-77.330915492734306
30
0
10
-126.78049465629316
20
-77.3751859726069
30
0
0
SPLINE
5
177
100
AcDbEntity
8
0
100
AcDbSpline
70
0
71
3
72
9
73
5
74
0
42
0.000000001
43
0.0000000001
44
0.0000000001
40
0
40
0
40
0
40
0
40
0.054144204201676219
40
0.11505227502008511
40
0.11505227502008511
40
0.11505227502008511
40
0.11505227502008511
10
-126.78049465629316
20
-77.3751859726069
30
0
10
-126.89331865657051
20
-77.234278027109795
30
0
10
-127.13306099095639
20
-76.934859466307572
30
0
10
-127.38781612487229
20
-76.648092598181478
30
0
10
-127.52268215629316
20
-76.4962797226069
30
0
0
SPLINE
5
178
100
AcDbEntity
8
0
100
AcDbSpline
70
0
71
3
72
9
73
5
74
0
42
0.000000001
43
0.0000000001
44
0.0000000001
40
0
40
0
40
0
40
0
40
0.13063582498697346
40
0.24994973635266948
40
0.24994973635266948
40
0.24994973635266948
40
0.24994973635266948
10
-127.52268215629316
20
-76.4962797226069
30
0
10
-127.11178890359324
20
-76.348784392224204
30
0
10
-126.32561359378313
20
-76.066576820556293
30
0
10
-125.60562682071657
20
-75.643532915619645
30
0
10
-125.26193996879316
20
-75.4415922226069
30
0
0
LINE
5
179
100
AcDbEntity
8
0
100
AcDbLine
10
-125.26193996879316
20
-75.4415922226069
30
0
11
-126.97580715629316
21
-75.4415922226069
31
0
0
LINE
5
180
100
AcDbEntity
8
0
100
AcDbLine
10
-126.97580715629316
20
-75.4415922226069
30
0
11
-126.97580715629316
21
-74.5333890976069
31
0
0
LINE
5
181
100
AcDbEntity
8
0
100
AcDbLine
10
-126.97580715629316
20
-74.5333890976069
30
0
11
-124.37815090629316
21
-74.5333890976069
31
0
0
LINE
5
182
100
AcDbEntity
8
0
100
AcDbLine
10
-124.37815090629316
20
-74.5333890976069
30
0
11
-124.37815090629316
21
-73.9669828476069
31
0
0
LINE
5
183
100
AcDbEntity
8
0
100
AcDbLine
10
-124.37815090629316
20
-73.9669828476069
30
0
11
-126.51682278129316
21
-74.0451078476069
31
0
0
SPLINE
5
184
100
AcDbEntity
8
0
100
AcDbSpline
70
0
71
3
72
9
73
5
74
0
42
0.000000001
43
0.0000000001
44
0.0000000001
40
0
40
0
40
0
40
0
40
0.046036532822081255
40
0.095213145682992328
40
0.095213145682992328
40
0.095213145682992328
40
0.095213145682992328
10
-126.51682278129316
20
-74.0451078476069
30
0
10
-126.5413350139695
20
-73.893614172031917
30
0
10
-126.59203142044842
20
-73.580293673758945
30
0
10
-126.6519111436328
20
-73.268596328451622
30
0
10
-126.68283840629316
20
-73.1076078476069
30
0
0
SPLINE
5
185
100
AcDbEntity
8
0
100
AcDbSpline
70
0
71
3
72
9
73
5
74
0
42
0.000000001
43
0.0000000001
44
0.0000000001
40
0
40
0
40
0
40
0
40
0.29217217553083136
40
0.56310315729196503
40
0.56310315729196503
40
0.56310315729196503
40
0.56310315729196503
10
-126.68283840629316
20
-73.1076078476069
30
0
10
-125.70929212903698
20
-73.078676906776252
30
0
10
-123.83297731056807
20
-73.02291833190317
30
0
10
-121.95932561485316
20
-72.908670637609688
30
0
10
-121.05783840629316
20
-72.8537015976069
30
0
0
LINE
5
186
100
AcDbEntity
8
0
100
AcDbLine
10
-121.05783840629316
20
-72.8537015976069
30
0
11
-120.91135403129316
21
-73.8009672226069
31
0
0
LINE
5
187
100
AcDbEntity
8
0
100
AcDbLine
10
-120.91135403129316
20
-73.8009672226069
30
0
11
-123.20627590629316
21
-73.9181547226069
31
0
0
LINE
5
188
100
AcDbEntity
8
0
100
AcDbLine
10
-123.20627590629316
20
-73.9181547226069
30
0
11
-123.20627590629316
21
-74.5333890976069
31
0
0
LINE
5
189
100
AcDbEntity
8
0
100
AcDbLine
10
-123.20627590629316
20
-74.5333890976069
30
0
11
-120.54026028129316
21
-74.5333890976069
31
0
0
LINE
5
190
100
AcDbEntity
8
0
100
AcDbLine
10
-120.54026028129316
20
-74.5333890976069
30
0
11
-120.54026028129316
21
-75.4415922226069
31
0
0
LINE
5
191
100
AcDbEntity
8
0
100
AcDbLine
10
-120.54026028129316
20
-75.4415922226069
30
0
11
-122.42990871879316
21
-75.4415922226069
31
0
0
SPLINE
5
192
100
AcDbEntity
8
0
100
AcDbSpline
70
0
71
3
72
9
73
5
74
0
42
0.000000001
43
0.0000000001
44
0.0000000001
40
0
40
0
40
0
40
0
40
0.11628791119124428
40
0.25077510738357472
40
0.25077510738357472
40
0.25077510738357472
40
0.25077510738357472
10
-122.42990871879316
20
-75.4415922226069
30
0
10
-122.09125471262271
20
-75.633703920861194
30
0
10
-121.36094668753833
20
-76.047993172992719
30
0
10
-120.5470527568375
20
-76.257155666482504
30
0
10
-120.11057278129316
20
-76.3693265976069
30
0
0
SPLINE
5
193
100
AcDbEntity
8
0
100
AcDbSpline
70
0
71
3
72
9
73
5
74
0
42
0.000000001
43
0.0000000001
44
0.0000000001
40
0
40
0
40
0
40
0
40
0.061362403960006133
40
0.11810606361257525
40
0.11810606361257525
40
0.11810606361257525
40
0.11810606361257525
10
-120.11057278129316
20
-76.3693265976069
30
0
10
-120.22894019082698
20
-76.536168393744433
30
0
10
-120.45676550238367
20
-76.857293814461286
30
0
10
-120.67147758557908
20
-77.187326167469323
30
0
10
-120.77463528129316
20
-77.3458890976069
30
0
0
SPLINE
5
194
100
AcDbEntity
8
0
100
AcDbSpline
70
0
71
3
72
9
73
5
74
0
42
0.000000001
43
0.0000000001
44
0.0000000001
40
0
40
0
40
0
40
0
40
0.15239132847345388
40
0.29183158976371604
40
0.29183158976371604
40
0.29183158976371604
40
0.29183158976371604
10
-120.77463528129316
20
-77.3458890976069
30
0
10
-121.23929801883239
20
-77.132493847501053
30
0
10
-122.1291338563332
20
-76.723838868833653
30
0
10
-122.85801072616123
20
-76.070938045805562
30
0
10
-123.20627590629316
20
-75.7589750351069
30
0
0
LINE
5
195
100
AcDbEntity
8
0
100
AcDbLine
10
-123.20627590629317
20
-75.7589750351069
30
0
11
-123.20627590629316
21
-76.7990140976069
31
0
0
LINE
5
196
100
AcDbEntity
8
0
100
AcDbLine
10
-123.20627590629316
20
-76.7990140976069
30
0
11
-124.37815090629316
21
-76.7990140976069
31
0
0
LINE
5
197
100
AcDbEntity
8
0
100
AcDbLine
10
-124.37815090629316
20
-76.7990140976069
30
0
11
-124.37815090629316
21
-75.7150297226069
31
0
0
SPLINE
5
198
100
AcDbEntity
8
0
100
AcDbSpline
70
0
71
3
72
9
73
5
74
0
42
0.000000001
43
0.0000000001
44
0.0000000001
40
0
40
0
40
0
40
0
40
0.10596863291989031
40
0.21989607800142227
40
0.21989607800142227
40
0.21989607800142227
40
0.21989607800142227
10
-124.37815090629316
20
-75.7150297226069
30
0
10
-124.64289865478798
20
-75.949914894629245
30
0
10
-125.1922781263315
20
-76.43732637371707
30
0
10
-125.8171184650927
20
-76.823531729765179
30
0
10
-126.14084621879316
20
-77.0236234726069
30
0
0
LINE
5
199
100
AcDbEntity
8
0
100
AcDbLine
10
-126.14084621879316
20
-77.0236234726069
30
0
11
-121.68283840629316
21
-77.0236234726069
31
0
0
LINE
5
200
100
AcDbEntity
8
0
100
AcDbLine
10
-121.68283840629316
20
-77.0236234726069
30
0
11
-122.03440090629316
21
-78.1954984726069
31
0
0
LINE
5
201
100
AcDbEntity
8
0
100
AcDbLine
10
-122.03440090629316
20
-78.1954984726069
30
0
11
-120.75510403129316
21
-78.1954984726069
31
0
0
SPLINE
5
202
100
AcDbEntity
8
0
100
AcDbSpline
70
0
71
3
72
9
73
5
74
0
42
0.000000001
43
0.0000000001
44
0.0000000001
40
0
40
0
40
0
40
0
40
0.074267321303385661
40
0.13567487663426564
40
0.13567487663426564
40
0.13567487663426564
40
0.13567487663426564
10
-120.10080715629316
20
-80.9005765976069
30
0
10
-120.19035368599458
20
-81.131379586470615
30
0
10
-120.35394130645868
20
-81.553020847948005
30
0
10
-120.50909772242591
20
-81.977833966583233
30
0
10
-120.57932278129316
20
-82.1701078476069
30
0
0
LINE
5
203
100
AcDbEntity
8
0
100
AcDbLine
10
-120.57932278129316
20
-82.1701078476069
30
0
11
-125.59885403129316
21
-82.1212797226069
31
0
0
SPLINE
5
204
100
AcDbEntity
8
0
100
AcDbSpline
70
0
71
3
72
9
73
5
74
0
42
0.000000001
43
0.0000000001
44
0.0000000001
40
0
40
0
40
0
40
0
40
0.1544522818666329
40
0.28263448025404142
40
0.28263448025404142
40
0.28263448025404142
40
0.28263448025404142
10
-125.59885403129316
20
-82.1212797226069
30
0
10
-126.12990533249351
20
-82.098507782810543
30
0
10
-127.10168384355879
20
-82.056837078493729
30
0
10
-127.84818615175467
20
-81.442752184132161
30
0
10
-128.18674465629317
20
-81.1642484726069
30
0
0
SPLINE
5
205
100
AcDbEntity
8
0
100
AcDbSpline
70
0
71
3
72
9
73
5
74
0
42
0.000000001
43
0.0000000001
44
0.0000000001
40
0
40
0
40
0
40
0
40
0.070577334632864919
40
0.16196357647516349
40
0.16196357647516349
40
0.16196357647516349
40
0.16196357647516349
10
-128.18674465629317
20
-81.1642484726069
30
0
10
-128.34249774461915
20
-81.340566902033146
30
0
10
-128.69992590995801
20
-81.745189201485317
30
0
10
-129.05234757137686
20
-82.154181820695854
30
0
10
-129.25119778129317
20
-82.3849515976069
30
0
0
LINE
5
206
100
AcDbEntity
8
0
100
AcDbLine
10
-129.25119778129317
20
-82.3849515976069
30
0
11
-129.80783840629317
21
-80.8810453476069
31
0
0
SPLINE
5
207
100
AcDbEntity
8
0
100
AcDbSpline
70
0
71
3
72
9
73
5
74
0
42
0.000000001
43
0.0000000001
44
0.0000000001
40
0
40
0
40
0
40
0
40
0.060946346521132726
40
0.12976986584535746
40
0.12976986584535746
40
0.12976986584535746
40
0.12976986584535746
10
-129.80783840629317
20
-80.8810453476069
30
0
10
-129.65714135249959
20
-80.74478243277683
30
0
10
-129.33627000302013
20
-80.454644939940181
30
0
10
-129.00628410681821
20
-80.174910482566247
30
0
10
-128.83127590629317
20
-80.0265531601069
30
0
0
LINE
5
208
100
AcDbEntity
8
0
100
AcDbLine
10
-128.83127590629314
20
-80.0265531601069
30
0
11
-128.83127590629317
21
-77.3947172226069
31
0
0
LINE
5
209
100
AcDbEntity
8
0
100
AcDbLine
10
-128.83127590629317
20
-77.3947172226069
30
0
11
-129.74924465629317
21
-77.3947172226069
31
0
0
LINE
5
210
100
AcDbEntity
8
0
100
AcDbLine
10
-129.74924465629317
20
-77.3947172226069
30
0
11
-129.74924465629317
21
-76.1056547226069
31
0
0
LINE
5
211
100
AcDbEntity
8
0
100
AcDbLine
10
-129.74924465629317
20
-76.1056547226069
30
0
11
-127.61057278129316
21
-76.1056547226069
31
0
0
LINE
5
212
100
AcDbEntity
8
0
100
AcDbLine
10
-127.61057278129316
20
-76.1056547226069
30
0
11
-127.61057278129316
21
-80.1632719101069
31
0
0
SPLINE
5
213
100
AcDbEntity
8
0
100
AcDbSpline
70
0
71
3
72
9
73
5
74
0
42
0.000000001
43
0.0000000001
44
0.0000000001
40
0
40
0
40
0
40
0
40
0.097733810142635102
40
0.22122462954324656
40
0.22122462954324656
40
0.22122462954324656
40
0.22122462954324656
10
-127.61057278129316
20
-80.1632719101069
30
0
10
-127.35581796017429
20
-80.38041150293202
30
0
10
-126.77916960435837
20
-80.871916192166978
30
0
10
-126.0154229461364
20
-80.896576486258624
30
0
10
-125.58908840629316
20
-80.9103422226069
30
0
0
LINE
5
214
100
AcDbEntity
8
0
100
AcDbLine
10
-125.58908840629316
20
-80.9103422226069
30
0
11
-123.61154934379316
21
-80.9298734726069
31
0
0
SPLINE
5
215
100
AcDbEntity
8
0
100
AcDbSpline
70
0
71
3
72
9
73
5
74
0
42
0.000000001
43
0.0000000001
44
0.0000000001
40
0
40
0
40
0
40
0
40
0.16101240803606587
40
0.35108858513159458
40
0.35108858513159458
40
0.35108858513159458
40
0.35108858513159458
10
-123.61154934379316
20
-80.9298734726069
30
0
10
-123.07483991984526
20
-80.928294915520439
30
0
10
-121.90454158955474
20
-80.924852861701112
30
0
10
-120.73434239269504
20
-80.90910327893441
30
0
10
-120.10080715629316
20
-80.9005765976069
30
0
0
LINE
5
216
100
AcDbEntity
8
0
100
AcDbLine
10
-113.64572903129316
20
-74.8361234726069
30
0
11
-115.18869778129316
21
-74.8361234726069
31
0
0
SPLINE
5
217
100
AcDbEntity
8
0
100
AcDbSpline
70
0
71
3
72
9
73
5
74
0
42
0.000000001
43
0.0000000001
44
0.0000000001
40
0
40
0
40
0
40
0
40
0.040622278269046942
40
0.080358930693553793
40
0.080358930693553793
40
0.080358930693553793
40
0.080358930693553793
10
-115.18869778129316
20
-74.8361234726069
30
0
10
-115.23660406867543
20
-74.962813883455283
30
0
10
-115.33137221540615
20
-75.213432666515004
30
0
10
-115.44173949906221
20
-75.457581782989976
30
0
10
-115.49631496879316
20
-75.5783109726069
30
0
0
LINE
5
218
100
AcDbEntity
8
0
100
AcDbLine
10
-115.49631496879314
20
-75.5783109726069
30
0
11
-113.76291653129316
21
-75.5783109726069
31
0
0
LINE
5
219
100
AcDbEntity
8
0
100
AcDbLine
10
-113.76291653129316
20
-75.5783109726069
30
0
11
-113.76291653129316
21
-76.6818265976069
31
0
0
LINE
5
220
100
AcDbEntity
8
0
100
AcDbLine
10
-113.76291653129316
20
-76.6818265976069
30
0
11
-114.63205715629316
21
-76.6818265976069
31
0
0
LINE
5
221
100
AcDbEntity
8
0
100
AcDbLine
10
-114.63205715629316
20
-76.6818265976069
30
0
11
-114.63205715629316
21
-77.6290922226069
31
0
0
LINE
5
222
100
AcDbEntity
8
0
100
AcDbLine
10
-114.63205715629316
20
-77.6290922226069
30
0
11
-113.46994778129316
21
-77.6290922226069
31
0
0
LINE
5
223
100
AcDbEntity
8
0
100
AcDbLine
10
-113.46994778129316
20
-77.6290922226069
30
0
11
-113.46994778129316
21
-78.7326078476069
31
0
0
LINE
5
224
100
AcDbEntity
8
0
100
AcDbLine
10
-113.46994778129316
20
-78.7326078476069
30
0
11
-114.63205715629316
21
-78.7326078476069
31
0
0
LINE
5
225
100
AcDbEntity
8
0
100
AcDbLine
10
-114.63205715629316
20
-78.7326078476069
30
0
11
-114.63205715629316
21
-80.0119047226069
31
0
0
SPLINE
5
226
100
AcDbEntity
8
0
100
AcDbSpline
70
0
71
3
72
9
73
5
74
0
42
0.000000001
43
0.0000000001
44
0.0000000001
40
0
40
0
40
0
40
0
40
0.062836693806254451
40
0.13179507661922843
40
0.13179507661922843
40
0.13179507661922843
40
0.13179507661922843
10
-114.63205715629316
20
-80.0119047226069
30
0
10
-114.46868076586661
20
-79.880814366298665
30
0
10
-114.12601149748608
20
-79.605862542656311
30
0
10
-113.79147156723506
20
-79.321070881661242
30
0
10
-113.61643215629316
20
-79.1720609726069
30
0
0
SPLINE
5
227
100
AcDbEntity
8
0
100
AcDbSpline
70
0
71
3
72
9
73
5
74
0
42
0.000000001
43
0.0000000001
44
0.0000000001
40
0
40
0
40
0
40
0
40
0.072970279783758335
40
0.14365352341135382
40
0.14365352341135382
40
0.14365352341135382
40
0.14365352341135382
10
-113.61643215629316
20
-79.1720609726069
30
0
10
-113.60256282391751
20
-79.415141593358015
30
0
10
-113.57525885209456
20
-79.89368419655753
30
0
10
-113.49158660350311
20
-80.365627404798587
30
0
10
-113.45041653129316
20
-80.5978422226069
30
0
0
SPLINE
5
228
100
AcDbEntity
8
0
100
AcDbSpline
70
0
71
3
72
9
73
5
74
0
42
0.000000001
43
0.0000000001
44
0.0000000001
40
0
40
0
40
0
40
0
40
0.13988916948835897
40
0.25701994392644201
40
0.25701994392644201
40
0.25701994392644201
40
0.25701994392644201
10
-113.45041653129316
20
-80.5978422226069
30
0
10
-113.83840342554556
20
-80.857970314981657
30
0
10
-114.5512561086351
20
-81.335906583817774
30
0
10
-115.18368593612433
20
-81.915663114502877
30
0
10
-115.47190090629316
20
-82.1798734726069
30
0
0
LINE
5
229
100
AcDbEntity
8
0
100
AcDbLine
10
-115.47190090629316
20
-82.179873472606914
30
0
11
-116.12619778129316
21
-81.2619047226069
31
0
0
SPLINE
5
230
100
AcDbEntity
8
0
100
AcDbSpline
70
0
71
3
72
9
73
5
74
0
42
0.000000001
43
0.0000000001
44
0.0000000001
40
0
40
0
40
0
40
0
40
0.039277059666892836
40
0.088790078556997054
40
0.088790078556997054
40
0.088790078556997054
40
0.088790078556997054
10
-116.12619778129316
20
-81.2619047226069
30
0
10
-116.04955531828108
20
-81.152466566809665
30
0
10
-115.87629666884654
20
-80.90506967578014
30
0
10
-115.8674558900681
20
-80.60124936471567
30
0
10
-115.86252590629316
20
-80.4318265976069
30
0
0
LINE
5
231
100
AcDbEntity
8
0
100
AcDbLine
10
-115.86252590629316
20
-80.4318265976069
30
0
11
-115.86252590629316
21
-78.7326078476069
31
0
0
LINE
5
232
100
AcDbEntity
8
0
100
AcDbLine
10
-115.86252590629316
20
-78.7326078476069
30
0
11
-116.82932278129316
21
-78.7326078476069
31
0
0
LINE
5
233
100
AcDbEntity
8
0
100
AcDbLine
10
-116.82932278129316
20
-78.7326078476069
30
0
11
-116.82932278129316
21
-77.6290922226069
31
0
0
LINE
5
234
100
AcDbEntity
8
0
100
AcDbLine
10
-116.82932278129316
20
-77.6290922226069
30
0
11
-115.86252590629316
21
-77.6290922226069
31
0
0
LINE
5
235
100
AcDbEntity
8
0
100
AcDbLine
10
-115.86252590629316
20
-77.6290922226069
30
0
11
-115.86252590629316
21
-76.6818265976069
31
0
0
LINE
5
236
100
AcDbEntity
8
0
100
AcDbLine
10
-115.86252590629316
20
-76.6818265976069
30
0
11
-116.09201809379316
21
-76.6818265976069
31
0
0
SPLINE
5
237
100
AcDbEntity
8
0
100
AcDbSpline
70
0
71
3
72
9
73
5
74
0
42
0.000000001
43
0.0000000001
44
0.0000000001
40
0
40
0
40
0
40
0
40
0.033115270733286031
40
0.065826698158102062
40
0.065826698158102062
40
0.065826698158102062
40
0.065826698158102062
10
-116.09201809379316
20
-76.6818265976069
30
0
10
-116.15102512505685
20
-76.775140844977557
30
0
10
-116.26831959223739
20
-76.960631365196818
30
0
10
-116.39518532312223
20
-77.139711068303015
30
0
10
-116.45822903129316
20
-77.2287015976069
30
0
0
SPLINE
5
238
100
AcDbEntity
8
0
100
AcDbSpline
70
0
71
3
72
9
73
5
74
0
42
0.000000001
43
0.0000000001
44
0.0000000001
40
0
40
0
40
0
40
0
40
0.079894063665560178
40
0.16229143418055686
40
0.16229143418055686
40
0.16229143418055686
40
0.16229143418055686
10
-116.45822903129316
20
-77.2287015976069
30
0
10
-116.51458475720455
20
-76.968322764109715
30
0
10
-116.62906199321961
20
-76.439406692254749
30
0
10
-116.78131759973867
20
-75.920096292373017
30
0
10
-116.85861965629316
20
-75.6564359726069
30
0
0
SPLINE
5
239
100
AcDbEntity
8
0
100
AcDbSpline
70
0
71
3
72
9
73
5
74
0
42
0.000000001
43
0.0000000001
44
0.0000000001
40
0
40
0
40
0
40
0
40
0.15839158124466651
40
0.32209055564995714
40
0.32209055564995714
40
0.32209055564995714
40
0.32209055564995714
10
-116.85861965629316
20
-75.6564359726069
30
0
10
-116.61691427245404
20
-75.184514813151026
30
0
10
-116.12540442848028
20
-74.224859336024906
30
0
10
-115.8863608964147
20
-73.173300854292876
30
0
10
-115.76486965629316
20
-72.6388578476069
30
0
0
LINE
5
240
100
AcDbEntity
8
0
100
AcDbLine
10
-115.76486965629316
20
-72.6388578476069
30
0
11
-114.59299465629316
21
-72.8341703476069
31
0
0
SPLINE
5
241
100
AcDbEntity
8
0
100
AcDbSpline
70
0
71
3
72
9
73
5
74
0
42
0.000000001
43
0.0000000001
44
0.0000000001
40
0
40
0
40
0
40
0
40
0.047404320624160369
40
0.093687646236565947
40
0.093687646236565947
40
0.093687646236565947
40
0.093687646236565947
10
-114.59299465629316
20
-72.8341703476069
30
0
10
-114.62793258860106
20
-72.988301704806062
30
0
10
-114.69698225747518
20
-73.292919593578787
30
0
10
-114.78098702738357
20
-73.593755370181611
30
0
10
-114.82248684379316
20
-73.7423734726069
30
0
0
LINE
5
242
100
AcDbEntity
8
0
100
AcDbLine
10
-114.82248684379316
20
-73.7423734726069
30
0
11
-113.64572903129316
21
-73.7423734726069
31
0
0
LINE
5
243
100
AcDbEntity
8
0
100
AcDbLine
10
-113.64572903129316
20
-73.7423734726069
30
0
11
-113.64572903129316
21
-74.8361234726069
31
0
0
LINE
5
244
100
AcDbEntity
8
0
100
AcDbLine
10
-107.52268215629316
20
-74.3771390976069
30
0
11
-109.13401028129316
21
-74.3771390976069
31
0
0
LINE
5
245
100
AcDbEntity
8
0
100
AcDbLine
10
-109.13401028129316
20
-74.3771390976069
30
0
11
-108.18674465629316
21
-74.6212797226069
31
0
0
SPLINE
5
246
100
AcDbEntity
8
0
100
AcDbSpline
70
0
71
3
72
9
73
5
74
0
42
0.000000001
43
0.0000000001
44
0.0000000001
40
0
40
0
40
0
40
0
40
0.029387271022513043
40
0.05904910106601409
40
0.05904910106601409
40
0.05904910106601409
40
0.05904910106601409
10
-108.18674465629316
20
-74.6212797226069
30
0
10
-108.2409937234499
20
-74.702847375372443
30
0
10
-108.3499986952563
20
-74.866744750129712
30
0
10
-108.46234271495611
20
-75.028371727574267
30
0
10
-108.51877590629316
20
-75.1095609726069
30
0
0
LINE
5
247
100
AcDbEntity
8
0
100
AcDbLine
10
-108.51877590629316
20
-75.1095609726069
30
0
11
-107.24924465629316
21
-75.1095609726069
31
0
0
LINE
5
248
100
AcDbEntity
8
0
100
AcDbLine
10
-107.24924465629316
20
-75.1095609726069
30
0
11
-107.24924465629316
21
-76.0861234726069
31
0
0
LINE
5
249
100
AcDbEntity
8
0
100
AcDbLine
10
-107.24924465629316
20
-76.0861234726069
30
0
11
-113.58713528129316
21
-76.0861234726069
31
0
0
LINE
5
250
100
AcDbEntity
8
0
100
AcDbLine
10
-113.58713528129316
20
-76.0861234726069
30
0
11
-113.58713528129316
21
-75.1095609726069
31
0
0
LINE
5
251
100
AcDbEntity
8
0
100
AcDbLine
10
-113.58713528129316
20
-75.1095609726069
30
0
11
-112.38108059379316
21
-75.1095609726069
31
0
0
SPLINE
5
252
100
AcDbEntity
8
0
100
AcDbSpline
70
0
71
3
72
9
73
5
74
0
42
0.000000001
43
0.0000000001
44
0.0000000001
40
0
40
0
40
0
40
0
40
0.028953318035801832
40
0.059374307762369058
40
0.059374307762369058
40
0.059374307762369058
40
0.059374307762369058
10
-112.38108059379316
20
-75.1095609726069
30
0
10
-112.42995053853909
20
-75.026332116948581
30
0
10
-112.53016769279016
20
-74.85565545445148
30
0
10
-112.63499071278775
20
-74.687767472512206
30
0
10
-112.68869778129316
20
-74.6017484726069
30
0
0
LINE
5
253
100
AcDbEntity
8
0
100
AcDbLine
10
-112.68869778129316
20
-74.6017484726069
30
0
11
-111.76584621879316
21
-74.3771390976069
31
0
0
LINE
5
254
100
AcDbEntity
8
0
100
AcDbLine
10
-111.76584621879316
20
-74.3771390976069
30
0
11
-113.31369778129316
21
-74.3771390976069
31
0
0
LINE
5
255
100
AcDbEntity
8
0
100
AcDbLine
10
-113.31369778129316
20
-74.3771390976069
30
0
11
-113.31369778129316
21
-73.4005765976069
31
0
0
LINE
5
256
100
AcDbEntity
8
0
100
AcDbLine
10
-113.31369778129316
20
-73.4005765976069
30
0
11
-111.21408840629316
21
-73.4005765976069
31
0
0
SPLINE
5
257
100
AcDbEntity
8
0
100
AcDbSpline
70
0
71
3
72
9
73
5
74
0
42
0.000000001
43
0.0000000001
44
0.0000000001
40
0
40
0
40
0
40
0
40
0.03004517174394733
40
0.061660204374620435
40
0.061660204374620435
40
0.061660204374620435
40
0.061660204374620435
10
-111.21408840629316
20
-73.4005765976069
30
0
10
-111.26155304527575
20
-73.312376389123472
30
0
10
-111.35896235167536
20
-73.131367509316775
30
0
10
-111.4633170192743
20
-72.954270275786158
30
0
10
-111.51682278129316
20
-72.8634672226069
30
0
0
LINE
5
258
100
AcDbEntity
8
0
100
AcDbLine
10
-111.51682278129316
20
-72.8634672226069
30
0
11
-109.99338528129316
21
-72.6779203476069
31
0
0
SPLINE
5
259
100
AcDbEntity
8
0
100
AcDbSpline
70
0
71
3
72
9
73
5
74
0
42
0.000000001
43
0.0000000001
44
0.0000000001
40
0
40
0
40
0
40
0
40
0.038164107479822525
40
0.075122192382491002
40
0.075122192382491002
40
0.075122192382491002
40
0.075122192382491002
10
-109.99338528129316
20
-72.6779203476069
30
0
10
-109.95702094730019
20
-72.799832667100731
30
0
10
-109.88544142731469
20
-73.03980475929896
30
0
10
-109.8203368471748
20
-73.281613328121466
30
0
10
-109.78830715629316
20
-73.4005765976069
30
0
0
LINE
5
260
100
AcDbEntity
8
0
100
AcDbLine
10
-109.78830715629316
20
-73.4005765976069
30
0
11
-107.52268215629316
21
-73.4005765976069
31
0
0
LINE
5
261
100
AcDbEntity
8
0
100
AcDbLine
10
-107.52268215629316
20
-73.4005765976069
30
0
11
-107.52268215629316
21
-74.3771390976069
31
0
0
LINE
5
262
100
AcDbEntity
8
0
100
AcDbLine
10
-111.00901028129316
20
-75.1095609726069
30
0
11
-109.96408840629316
21
-75.1095609726069
31
0
0
SPLINE
5
263
100
AcDbEntity
8
0
100
AcDbSpline
70
0
71
3
72
9
73
5
74
0
42
0.000000001
43
0.0000000001
44
0.0000000001
40
0
40
0
40
0
40
0
40
0.044021878828399356
40
0.085448881339054428
40
0.085448881339054428
40
0.085448881339054428
40
0.085448881339054428
10
-109.96408840629316
20
-75.1095609726069
30
0
10
-109.88330463943151
20
-74.98696786754742
30
0
10
-109.72649891708625
20
-74.749007926581513
30
0
10
-109.59054698250121
20
-74.498560209674295
30
0
10
-109.52463528129316
20
-74.3771390976069
30
0
0
LINE
5
264
100
AcDbEntity
8
0
100
AcDbLine
10
-109.52463528129316
20
-74.3771390976069
30
0
11
-111.48752590629316
21
-74.3771390976069
31
0
0
SPLINE
5
265
100
AcDbEntity
8
0
100
AcDbSpline
70
0
71
3
72
9
73
5
74
0
42
0.000000001
43
0.0000000001
44
0.0000000001
40
0
40
0
40
0
40
0
40
0.043946668815875077
40
0.087500973133836368
40
0.087500973133836368
40
0.087500973133836368
40
0.087500973133836368
10
-111.48752590629316
20
-74.3771390976069
30
0
10
-111.40428061668121
20
-74.497708887092713
30
0
10
-111.23853326776674
20
-74.73777199528304
30
0
10
-111.08528888826885
20
-74.986002344711252
30
0
10
-111.00901028129316
20
-75.1095609726069
30
0
0
LINE
5
266
100
AcDbEntity
8
0
100
AcDbLine
10
-113.30393215629316
20
-76.4865140976069
30
0
11
-107.73752590629316
21
-76.4865140976069
31
0
0
LINE
5
267
100
AcDbEntity
8
0
100
AcDbLine
10
-107.73752590629316
20
-76.4865140976069
30
0
11
-107.73752590629316
21
-80.0509672226069
31
0
0
LINE
5
268
100
AcDbEntity
8
0
100
AcDbLine
10
-107.73752590629316
20
-80.0509672226069
30
0
11
-109.07541653129316
21
-80.0509672226069
31
0
0
LINE
5
269
100
AcDbEntity
8
0
100
AcDbLine
10
-109.07541653129316
20
-80.0509672226069
30
0
11
-109.07541653129316
21
-80.7833890976069
31
0
0
SPLINE
5
270
100
AcDbEntity
8
0
100
AcDbSpline
70
0
71
3
72
9
73
5
74
0
42
0.000000001
43
0.0000000001
44
0.0000000001
40
0
40
0
40
0
40
0
40
0.028842711854645826
40
0.053370037019001143
40
0.053370037019001143
40
0.053370037019001143
40
0.053370037019001143
10
-109.07541653129316
20
-80.7833890976069
30
0
10
-109.06742068949367
20
-80.891404804342642
30
0
10
-109.05262532715088
20
-81.091275131937749
30
0
10
-108.86082708170163
20
-81.13458081046906
30
0
10
-108.77268215629316
20
-81.1544828476069
30
0
0
LINE
5
271
100
AcDbEntity
8
0
100
AcDbLine
10
-108.77268215629314
20
-81.1544828476069
30
0
11
-108.66526028129316
21
-81.1544828476069
31
0
0
SPLINE
5
272
100
AcDbEntity
8
0
100
AcDbSpline
70
0
71
3
72
9
73
5
74
0
42
0.000000001
43
0.0000000001
44
0.0000000001
40
0
40
0
40
0
40
0
40
0.017527613651993734
40
0.035248002187179744
40
0.035248002187179744
40
0.035248002187179744
40
0.035248002187179744
10
-108.66526028129316
20
-81.1544828476069
30
0
10
-108.60434518516468
20
-81.14699970859057
30
0
10
-108.48184502717399
20
-81.131951128353066
30
0
10
-108.41219155221609
20
-81.02997068829707
30
0
10
-108.37717434379316
20
-80.9787015976069
30
0
0
SPLINE
5
273
100
AcDbEntity
8
0
100
AcDbSpline
70
0
71
3
72
9
73
5
74
0
42
0.000000001
43
0.0000000001
44
0.0000000001
40
0
40
0
40
0
40
0
40
0.031830404538008679
40
0.089271588520824674
40
0.089271588520824674
40
0.089271588520824674
40
0.089271588520824674
10
-108.37717434379316
20
-80.9787015976069
30
0
10
-108.34702139162013
20
-80.876694779831865
30
0
10
-108.26245438789687
20
-80.590606343479877
30
0
10
-108.24609750442617
20
-80.291958335420588
30
0
10
-108.23557278129316
20
-80.0997953476069
30
0
0
SPLINE
5
274
100
AcDbEntity
8
0
100
AcDbSpline
70
0
71
3
72
9
73
5
74
0
42
0.000000001
43
0.0000000001
44
0.0000000001
40
0
40
0
40
0
40
0
40
0.060251314425870957
40
0.11962167637594059
40
0.11962167637594059
40
0.11962167637594059
40
0.11962167637594059
10
-108.23557278129316
20
-80.0997953476069
30
0
10
-108.05032449196737
20
-80.177713198268421
30
0
10
-107.68253648391999
20
-80.332409639409263
30
0
10
-107.30159428400187
20
-80.451062216726626
30
0
10
-107.11252590629316
20
-80.5099515976069
30
0
0
SPLINE
5
275
100
AcDbEntity
8
0
100
AcDbSpline
70
0
71
3
72
9
73
5
74
0
42
0.000000001
43
0.0000000001
44
0.0000000001
40
0
40
0
40
0
40
0
40
0.10025869301969852
40
0.15951792078817367
40
0.15951792078817367
40
0.15951792078817367
40
0.15951792078817367
10
-107.11252590629316
20
-80.5099515976069
30
0
10
-107.14820106118853
20
-80.850890202011158
30
0
10
-107.2049624886648
20
-81.393345082011464
30
0
10
-107.52384833037638
20
-81.82798108640975
30
0
10
-107.64231106254316
20
-81.9894437851069
30
0
0
SPLINE
5
276
100
AcDbEntity
8
0
100
AcDbSpline
70
0
71
3
72
9
73
5
74
0
42
0.000000001
43
0.0000000001
44
0.0000000001
40
0
40
0
40
0
40
0
40
0.045652216083618691
40
0.095330671608891832
40
0.095330671608891832
40
0.095330671608891832
40
0.095330671608891832
10
-107.64231106254316
20
-81.9894437851069
30
0
10
-107.77690031037055
20
-82.064887019263267
30
0
10
-108.05794873446503
20
-82.222427108167153
30
0
10
-108.38016193220784
20
-82.239392098721709
30
0
10
-108.54807278129316
20
-82.2482328476069
30
0
0
LINE
5
277
100
AcDbEntity
8
0
100
AcDbLine
10
-108.54807278129316
20
-82.248232847606914
30
0
11
-109.13401028129316
21
-82.2482328476069
31
0
0
SPLINE
5
278
100
AcDbEntity
8
0
100
AcDbSpline
70
0
71
3
72
9
73
5
74
0
42
0.000000001
43
0.0000000001
44
0.0000000001
40
0
40
0
40
0
40
0
40
0.09197364182834239
40
0.1783901121292284
40
0.1783901121292284
40
0.1783901121292284
40
0.1783901121292284
10
-109.13401028129316
20
-82.2482328476069
30
0
10
-109.47570934019171
20
-82.208966280818018
30
0
10
-110.13846153983968
20
-82.132805686182948
30
0
10
-110.25124853983378
20
-81.480325569005331
30
0
10
-110.30588528129316
20
-81.1642484726069
30
0
0
LINE
5
279
100
AcDbEntity
8
0
100
AcDbLine
10
-110.30588528129316
20
-81.1642484726069
30
0
11
-110.30588528129316
21
-80.0509672226069
31
0
0
LINE
5
280
100
AcDbEntity
8
0
100
AcDbLine
10
-110.30588528129316
20
-80.0509672226069
30
0
11
-110.92111965629316
21
-80.0509672226069
31
0
0
SPLINE
5
281
100
AcDbEntity
8
0
100
AcDbSpline
70
0
71
3
72
9
73
5
74
0
42
0.000000001
43
0.0000000001
44
0.0000000001
40
0
40
0
40
0
40
0
40
0.15655069028738125
40
0.3335905232491731
40
0.3335905232491731
40
0.3335905232491731
40
0.3335905232491731
10
-110.92111965629316
20
-80.0509672226069
30
0
10
-111.08520611386641
20
-80.572406580636695
30
0
10
-111.43485444272066
20
-81.68353057484299
30
0
10
-112.50917179745399
20
-82.154522639814616
30
0
10
-113.07932278129316
20
-82.4044828476069
30
0
0
SPLINE
5
282
100
AcDbEntity
8
0
100
AcDbSpline
70
0
71
3
72
9
73
5
74
0
42
0.000000001
43
0.0000000001
44
0.0000000001
40
0
40
0
40
0
40
0
40
0.06386785944313958
40
0.13341152110310106
40
0.13341152110310106
40
0.13341152110310106
40
0.13341152110310106
10
-113.07932278129316
20
-82.4044828476069
30
0
10
-113.20303132462689
20
-82.230961378713019
30
0
10
-113.46144212911447
20
-81.868497953274669
30
0
10
-113.76232485558299
20
-81.540370290092596
30
0
10
-113.91916653129316
20
-81.3693265976069
30
0
0
SPLINE
5
283
100
AcDbEntity
8
0
100
AcDbSpline
70
0
71
3
72
9
73
5
74
0
42
0.000000001
43
0.0000000001
44
0.0000000001
40
0
40
0
40
0
40
0
40
0.13332654543327341
40
0.22690894630739378
40
0.22690894630739378
40
0.22690894630739378
40
0.22690894630739378
10
-113.91916653129316
20
-81.3693265976069
30
0
10
-113.46770655663796
20
-81.242510655009852
30
0
10
-112.69936513733489
20
-81.02668212801872
30
0
10
-112.32882261660913
20
-80.335872709822411
30
0
10
-112.17600246879316
20
-80.0509672226069
30
0
0
LINE
5
284
100
AcDbEntity
8
0
100
AcDbLine
10
-112.17600246879316
20
-80.050967222606886
30
0
11
-113.30393215629316
21
-80.0509672226069
31
0
0
LINE
5
285
100
AcDbEntity
8
0
100
AcDbLine
10
-113.30393215629316
20
-80.0509672226069
30
0
11
-113.30393215629316
21
-76.4865140976069
31
0
0
LWPOLYLINE
5
286
100
AcDbEntity
8
0
100
AcDbPolyline
90
4
70
1
43
0.0
10
-112.07346340629316
20
-77.4142484726069
10
-108.96799465629316
20
-77.4142484726069
10
-108.96799465629316
20
-77.8537015976069
10
-112.07346340629316
20
-77.8537015976069
0
LWPOLYLINE
5
287
100
AcDbEntity
8
0
100
AcDbPolyline
90
4
70
1
43
0.0
10
-108.96799465629316
20
-78.6935453476069
10
-108.96799465629316
20
-79.1329984726069
10
-112.07346340629316
20
-79.1329984726069
10
-112.07346340629316
20
-78.6935453476069
0
LINE
5
288
100
AcDbEntity
8
0
100
AcDbLine
10
-91.563932156293163
20
-81.53581097260691
30
0
11
-91.817838406293163
21
-80.34440472260691
31
0
0
LINE
5
289
100
AcDbEntity
8
0
100
AcDbLine
10
-91.817838406293163
20
-80.34440472260691
30
0
11
-89.137174343793163
21
-79.99284222260691
31
0
0
SPLINE
5
290
100
AcDbEntity
8
0
100
AcDbSpline
70
0
71
3
72
9
73
5
74
0
42
0.000000001
43
0.0000000001
44
0.0000000001
40
0
40
0
40
0
40
0
40
0.13687413785828406
40
0.29261964031119403
40
0.29261964031119403
40
0.29261964031119403
40
0.29261964031119403
10
-89.137174343793163
20
-79.99284222260691
30
0
10
-89.039017439425251
20
-79.546115223928695
30
0
10
-88.829170360206092
20
-78.591069254573554
30
0
10
-88.810302575701897
20
-77.613016061048867
30
0
10
-88.800260281293163
20
-77.09245159760691
30
0
0
LINE
5
291
100
AcDbEntity
8
0
100
AcDbLine
10
-88.800260281293163
20
-77.09245159760691
30
0
11
-88.800260281293163
21
-76.16471722260691
31
0
0
SPLINE
5
292
100
AcDbEntity
8
0
100
AcDbSpline
70
0
71
3
72
9
73
5
74
0
42
0.000000001
43
0.0000000001
44
0.0000000001
40
0
40
0
40
0
40
0
40
0.14290091150632447
40
0.24577482996212019
40
0.24577482996212019
40
0.24577482996212019
40
0.24577482996212019
10
-88.800260281293163
20
-76.16471722260691
30
0
10
-89.029221481087703
20
-76.582697981070865
30
0
10
-89.423011131232357
20
-77.301581777934317
30
0
10
-89.872065369156246
20
-77.987138775515405
30
0
10
-90.060025906293163
20
-78.27409222260691
30
0
0
LINE
5
293
100
AcDbEntity
8
0
100
AcDbLine
10
-90.060025906293149
20
-78.274092222606896
30
0
11
-89.015104031293163
21
-78.17643597260691
31
0
0
SPLINE
5
294
100
AcDbEntity
8
0
100
AcDbSpline
70
0
71
3
72
9
73
5
74
0
42
0.000000001
43
0.0000000001
44
0.0000000001
40
0
40
0
40
0
40
0
40
0.066277322713066522
40
0.11636424609583595
40
0.11636424609583595
40
0.11636424609583595
40
0.11636424609583595
10
-89.015104031293163
20
-78.17643597260691
30
0
10
-89.029379608242891
20
-78.39691482013292
30
0
10
-89.054443486524889
20
-78.784013360360817
30
0
10
-89.067903959658452
20
-79.17168078759515
30
0
10
-89.073697781293163
20
-79.33854534760691
30
0
0
SPLINE
5
295
100
AcDbEntity
8
0
100
AcDbSpline
70
0
71
3
72
9
73
5
74
0
42
0.000000001
43
0.0000000001
44
0.0000000001
40
0
40
0
40
0
40
0
40
0.12830187985952615
40
0.22400998719157003
40
0.22400998719157003
40
0.22400998719157003
40
0.22400998719157003
10
-89.073697781293163
20
-79.33854534760691
30
0
10
-89.501030839368269
20
-79.362924029287768
30
0
10
-90.247137388787095
20
-79.405488239391744
30
0
10
-90.985006310509974
20
-79.522799286402147
30
0
10
-91.300260281293163
20
-79.57292034760691
30
0
0
LINE
5
296
100
AcDbEntity
8
0
100
AcDbLine
10
-91.300260281293163
20
-79.572920347606896
30
0
11
-91.632291531293163
21
-78.49870159760691
31
0
0
SPLINE
5
297
100
AcDbEntity
8
0
100
AcDbSpline
70
0
71
3
72
9
73
5
74
0
42
0.000000001
43
0.0000000001
44
0.0000000001
40
0
40
0
40
0
40
0
40
0.096975240836221832
40
0.20393064058650895
40
0.20393064058650895
40
0.20393064058650895
40
0.20393064058650895
10
-91.632291531293163
20
-78.49870159760691
30
0
10
-91.436674970823333
20
-78.241168818277316
30
0
10
-91.025310068380719
20
-77.699599401095796
30
0
10
-90.661165089092407
20
-77.12516843032239
30
0
10
-90.470182156293163
20
-76.82389691010691
30
0
0
SPLINE
5
298
100
AcDbEntity
8
0
100
AcDbSpline
70
0
71
3
72
9
73
5
74
0
42
0.000000001
43
0.0000000001
44
0.0000000001
40
0
40
0
40
0
40
0
40
0.052644582525484346
40
0.10199678106433346
40
0.10199678106433346
40
0.10199678106433346
40
0.10199678106433346
10
-90.470182156293163
20
-76.82389691010691
30
0
10
-90.645273701083212
20
-76.835973325519006
30
0
10
-90.984506592739649
20
-76.859370899205402
30
0
10
-91.322341997789977
20
-76.897986021084904
30
0
10
-91.485807156293163
20
-76.91667034760691
30
0
0
LINE
5
299
100
AcDbEntity
8
0
100
AcDbLine
10
-91.485807156293163
20
-76.916670347606924
30
0
11
-91.798307156293163
21
-75.86198284760691
31
0
0
SPLINE
5
300
100
AcDbEntity
8
0
100
AcDbSpline
70
0
71
3
72
9
73
5
74
0
42
0.000000001
43
0.0000000001
44
0.0000000001
40
0
40
0
40
0
40
0
40
0.12892127671944961
40
0.34625100463567127
40
0.34625100463567127
40
0.34625100463567127
40
0.34625100463567127
10
-91.798307156293163
20
-75.86198284760691
30
0
10
-91.57375691713932
20
-75.495116384599967
30
0
10
-90.97066991802906
20
-74.509802830346871
30
0
10
-90.507187635247817
20
-73.450621992096302
30
0
10
-90.216275906293163
20
-72.78581097260691
30
0
0
LINE
5
301
100
AcDbEntity
8
0
100
AcDbLine
10
-90.216275906293163
20
-72.78581097260691
30
0
11
-89.024869656293163
21
-73.27409222260691
31
0
0
SPLINE
5
302
100
AcDbEntity
8
0
100
AcDbSpline
70
0
71
3
72
9
73
5
74
0
42
0.000000001
43
0.0000000001
44
0.0000000001
40
0
40
0
40
0
40
0
40
0.17704151632198284
40
0.2888408634104136
40
0.2888408634104136
40
0.2888408634104136
40
0.2888408634104136
10
-89.024869656293163
20
-73.27409222260691
30
0
10
-89.304330789552154
20
-73.794135408014
30
0
10
-89.76026788666428
20
-74.642578901971078
30
0
10
-90.272079345458351
20
-75.458341463811536
30
0
10
-90.470182156293163
20
-75.77409222260691
30
0
0
SPLINE
5
303
100
AcDbEntity
8
0
100
AcDbSpline
70
0
71
3
72
9
73
5
74
0
42
0.000000001
43
0.0000000001
44
0.0000000001
40
0
40
0
40
0
40
0
40
0.028817902693560431
40
0.063507356038494556
40
0.063507356038494556
40
0.063507356038494556
40
0.063507356038494556
10
-90.470182156293163
20
-75.77409222260691
30
0
10
-90.374147052397177
20
-75.771863835819588
30
0
10
-90.162510015511799
20
-75.766953035939423
30
0
10
-89.950967069355244
20
-75.75893864949397
30
0
10
-89.835416531293163
20
-75.75456097260691
30
0
0
SPLINE
5
304
100
AcDbEntity
8
0
100
AcDbSpline
70
0
71
3
72
9
73
5
74
0
42
0.000000001
43
0.0000000001
44
0.0000000001
40
0
40
0
40
0
40
0
40
0.036280972633320162
40
0.073419247769660828
40
0.073419247769660828
40
0.073419247769660828
40
0.073419247769660828
10
-89.835416531293163
20
-75.75456097260691
30
0
10
-89.776488584213027
20
-75.648949023346589
30
0
10
-89.657240250080406
20
-75.435229563602604
30
0
10
-89.542097603769406
20
-75.219270241494627
30
0
10
-89.483854031293163
20
-75.11002972260691
30
0
0
LINE
5
305
100
AcDbEntity
8
0
100
AcDbLine
10
-89.483854031293163
20
-75.11002972260691
30
0
11
-88.800260281293163
21
-75.37370159760691
31
0
0
LINE
5
306
100
AcDbEntity
8
0
100
AcDbLine
10
-88.800260281293163
20
-75.37370159760691
30
0
11
-88.800260281293163
21
-73.70377972260691
31
0
0
LINE
5
307
100
AcDbEntity
8
0
100
AcDbLine
10
-88.800260281293163
20
-73.70377972260691
30
0
11
-86.319791531293163
21
-73.70377972260691
31
0
0
SPLINE
5
308
100
AcDbEntity
8
0
100
AcDbSpline
70
0
71
3
72
9
73
5
74
0
42
0.000000001
43
0.0000000001
44
0.0000000001
40
0
40
0
40
0
40
0
40
0.033085333628362412
40
0.067699102054093338
40
0.067699102054093338
40
0.067699102054093338
40
0.067699102054093338
10
-86.319791531293163
20
-73.70377972260691
30
0
10
-86.367183469801063
20
-73.604184902955538
30
0
10
-86.464156700224777
20
-73.400394306935738
30
0
10
-86.568947553942081
20
-73.200509674790652
30
0
10
-86.622525906293163
20
-73.09831097260691
30
0
0
LINE
5
309
100
AcDbEntity
8
0
100
AcDbLine
10
-86.622525906293163
20
-73.09831097260691
30
0
11
-85.284635281293163
21
-72.74674847260691
31
0
0
SPLINE
5
310
100
AcDbEntity
8
0
100
AcDbSpline
70
0
71
3
72
9
73
5
74
0
42
0.000000001
43
0.0000000001
44
0.0000000001
40
0
40
0
40
0
40
0
40
0.057981213980233134
40
0.10701034128015052
40
0.10701034128015052
40
0.10701034128015052
40
0.10701034128015052
10
-85.284635281293163
20
-72.74674847260691
30
0
10
-85.194582694837493
20
-72.91778865944525
30
0
10
-85.028381310832913
20
-73.233461055894765
30
0
10
-84.87595644216205
20
-73.556000997188306
30
0
10
-84.806119656293163
20
-73.70377972260691
30
0
0
LINE
5
311
100
AcDbEntity
8
0
100
AcDbLine
10
-84.806119656293163
20
-73.70377972260691
30
0
11
-82.530729031293163
21
-73.70377972260691
31
0
0
LINE
5
312
100
AcDbEntity
8
0
100
AcDbLine
10
-82.530729031293163
20
-73.70377972260691
30
0
11
-82.530729031293163
21
-76.42838909760691
31
0
0
LINE
5
313
100
AcDbEntity
8
0
100
AcDbLine
10
-82.530729031293163
20
-76.42838909760691
30
0
11
-87.667447781293163
21
-76.42838909760691
31
0
0
SPLINE
5
314
100
AcDbEntity
8
0
100
AcDbSpline
70
0
71
3
72
9
73
5
74
0
42
0.000000001
43
0.0000000001
44
0.0000000001
40
0
40
0
40
0
40
0
40
0.029541267835312822
40
0.058596310170767288
40
0.058596310170767288
40
0.058596310170767288
40
0.058596310170767288
10
-87.667447781293163
20
-76.42838909760691
30
0
10
-87.667644394222435
20
-76.526860909483489
30
0
10
-87.668034383990317
20
-76.72218376644291
30
0
10
-87.670906467933904
20
-76.917485852030651
30
0
10
-87.672330593793163
20
-77.01432659760691
30
0
0
LINE
5
315
100
AcDbEntity
8
0
100
AcDbLine
10
-87.672330593793163
20
-77.014326597606896
30
0
11
-82.423307156293163
21
-77.01432659760691
31
0
0
LINE
5
316
100
AcDbEntity
8
0
100
AcDbLine
10
-82.423307156293163
20
-77.01432659760691
30
0
11
-82.423307156293163
21
-81.31120159760691
31
0
0
SPLINE
5
317
100
AcDbEntity
8
0
100
AcDbSpline
70
0
71
3
72
9
73
5
74
0
42
0.000000001
43
0.0000000001
44
0.0000000001
40
0
40
0
40
0
40
0
40
0.038979442032059365
40
0.070371455239764402
40
0.070371455239764402
40
0.070371455239764402
40
0.070371455239764402
10
-82.423307156293163
20
-81.31120159760691
30
0
10
-82.426201382337467
20
-81.442569247882503
30
0
10
-82.431426467354413
20
-81.679733564234652
30
0
10
-82.523732089654175
20
-81.897605031516491
30
0
10
-82.564908718793163
20
-81.99479534760691
30
0
0
SPLINE
5
318
100
AcDbEntity
8
0
100
AcDbSpline
70
0
71
3
72
9
73
5
74
0
42
0.000000001
43
0.0000000001
44
0.0000000001
40
0
40
0
40
0
40
0
40
0.026766125578021271
40
0.052943448765102014
40
0.052943448765102014
40
0.052943448765102014
40
0.052943448765102014
10
-82.564908718793163
20
-81.99479534760691
30
0
10
-82.616794174655737
20
-82.070241173355015
30
0
10
-82.71942370787329
20
-82.219473164305413
30
0
10
-82.888851700071697
20
-82.28314011974463
30
0
10
-82.972623562543163
20
-82.31461956635691
30
0
0
SPLINE
5
319
100
AcDbEntity
8
0
100
AcDbSpline
70
0
71
3
72
9
73
5
74
0
42
0.000000001
43
0.0000000001
44
0.0000000001
40
0
40
0
40
0
40
0
40
0.045178303464679659
40
0.12630819293927353
40
0.12630819293927353
40
0.12630819293927353
40
0.12630819293927353
10
-82.972623562543163
20
-82.31461956635691
30
0
10
-83.121535997592446
20
-82.337762514467926
30
0
10
-83.537861072569314
20
-82.40246489882098
30
0
10
-83.959269815452856
20
-82.415871537038129
30
0
10
-84.229947781293163
20
-82.42448284760691
30
0
0
SPLINE
5
320
100
AcDbEntity
8
0
100
AcDbSpline
70
0
71
3
72
9
73
5
74
0
42
0.000000001
43
0.0000000001
44
0.0000000001
40
0
40
0
40
0
40
0
40
0.024806417570079176
40
0.050758921995700881
40
0.050758921995700881
40
0.050758921995700881
40
0.050758921995700881
10
-84.229947781293163
20
-82.42448284760691
30
0
10
-84.243993989020197
20
-82.342984769443063
30
0
10
-84.27273535646421
20
-82.176223302148117
30
0
10
-84.309041222690112
20
-82.010942376382758
30
0
10
-84.327604031293163
20
-81.92643597260691
30
0
0
LINE
5
321
100
AcDbEntity
8
0
100
AcDbLine
10
-84.327604031293163
20
-81.92643597260691
30
0
11
-84.894010281293163
21
-81.92643597260691
31
0
0
LINE
5
322
100
AcDbEntity
8
0
100
AcDbLine
10
-84.894010281293163
20
-81.92643597260691
30
0
11
-84.894010281293163
21
-80.13932659760691
31
0
0
LINE
5
323
100
AcDbEntity
8
0
100
AcDbLine
10
-84.894010281293163
20
-80.13932659760691
30
0
11
-85.479947781293163
21
-80.13932659760691
31
0
0
LINE
5
324
100
AcDbEntity
8
0
100
AcDbLine
10
-85.479947781293163
20
-80.13932659760691
30
0
11
-85.479947781293163
21
-82.05338909760691
31
0
0
LINE
5
325
100
AcDbEntity
8
0
100
AcDbLine
10
-85.479947781293163
20
-82.05338909760691
30
0
11
-86.329557156293163
21
-82.05338909760691
31
0
0
LINE
5
326
100
AcDbEntity
8
0
100
AcDbLine
10
-86.329557156293163
20
-82.05338909760691
30
0
11
-86.329557156293163
21
-80.13932659760691
31
0
0
LINE
5
327
100
AcDbEntity
8
0
100
AcDbLine
10
-86.329557156293163
20
-80.13932659760691
30
0
11
-86.915494656293163
21
-80.13932659760691
31
0
0
LINE
5
328
100
AcDbEntity
8
0
100
AcDbLine
10
-86.915494656293163
20
-80.13932659760691
30
0
11
-86.915494656293163
21
-82.36588909760691
31
0
0
LINE
5
329
100
AcDbEntity
8
0
100
AcDbLine
10
-86.915494656293163
20
-82.36588909760691
30
0
11
-87.882291531293163
21
-82.36588909760691
31
0
0
LINE
5
330
100
AcDbEntity
8
0
100
AcDbLine
10
-87.882291531293163
20
-82.36588909760691
30
0
11
-87.882291531293163
21
-78.47428753510691
31
0
0
SPLINE
5
331
100
AcDbEntity
8
0
100
AcDbSpline
70
0
71
3
72
9
73
5
74
0
42
0.000000001
43
0.0000000001
44
0.0000000001
40
0
40
0
40
0
40
0
40
0.2398571060388443
40
0.41193022606384844
40
0.41193022606384844
40
0.41193022606384844
40
0.41193022606384844
10
-87.882291531293163
20
-78.47428753510691
30
0
10
-87.962198253878796
20
-79.278736856901631
30
0
10
-88.099429936701611
20
-80.660296888440342
30
0
10
-88.717753127396733
20
-81.897787683149403
30
0
10
-88.976041531293163
20
-82.41471722260691
30
0
0
SPLINE
5
332
100
AcDbEntity
8
0
100
AcDbSpline
70
0
71
3
72
9
73
5
74
0
42
0.000000001
43
0.0000000001
44
0.0000000001
40
0
40
0
40
0
40
0
40
0.053564809208593085
40
0.11493352664779868
40
0.11493352664779868
40
0.11493352664779868
40
0.11493352664779868
10
-88.976041531293163
20
-82.41471722260691
30
0
10
-89.120752619337779
20
-82.309491336725529
30
0
10
-89.431257892104412
20
-82.08370910511357
30
0
10
-89.777495958548002
20
-81.917517613171043
30
0
10
-89.962369656293163
20
-81.82877972260691
30
0
0
SPLINE
5
333
100
AcDbEntity
8
0
100
AcDbSpline
70
0
71
3
72
9
73
5
74
0
42
0.000000001
43
0.0000000001
44
0.0000000001
40
0
40
0
40
0
40
0
40
0.03511086819728354
40
0.071225943156329186
40
0.071225943156329186
40
0.071225943156329186
40
0.071225943156329186
10
-89.962369656293163
20
-81.82877972260691
30
0
10
-89.896683338592254
20
-81.731799545445881
30
0
10
-89.76343200728293
20
-81.535065458810664
30
0
10
-89.652438111876251
20
-81.324961337994466
30
0
10
-89.596158718793163
20
-81.21842816010691
30
0
0
LINE
5
334
100
AcDbEntity
8
0
100
AcDbLine
10
-89.596158718793163
20
-81.218428160106896
30
0
11
-91.563932156293163
21
-81.53581097260691
31
0
0
LWPOLYLINE
5
335
100
AcDbEntity
8
0
100
AcDbPolyline
90
4
70
1
43
0.0
10
-87.667447781293163
20
-74.73893597260691
10
-83.702604031293163
20
-74.73893597260691
10
-83.702604031293163
20
-75.39323284760691
10
-87.667447781293163
20
-75.39323284760691
0
LWPOLYLINE
5
336
100
AcDbEntity
8
0
100
AcDbPolyline
90
4
70
1
43
0.0
10
-84.894010281293163
20
-79.16276409760691
10
-85.479947781293163
20
-79.16276409760691
10
-85.479947781293163
20
-78.03971722260691
10
-84.894010281293163
20
-78.03971722260691
0
LWPOLYLINE
5
337
100
AcDbEntity
8
0
100
AcDbPolyline
90
4
70
1
43
0.0
10
-84.044400906293163
20
-78.03971722260691
10
-83.458463406293163
20
-78.03971722260691
10
-83.458463406293163
20
-79.16276409760691
10
-84.044400906293163
20
-79.16276409760691
0
LWPOLYLINE
5
338
100
AcDbEntity
8
0
100
AcDbPolyline
90
4
70
1
43
0.0
10
-86.329557156293163
20
-79.16276409760691
10
-86.915494656293163
20
-79.16276409760691
10
-86.915494656293163
20
-78.03971722260691
10
-86.329557156293163
20
-78.03971722260691
0
LINE
5
339
100
AcDbEntity
8
0
100
AcDbLine
10
-83.458463406293163
20
-80.13932659760691
30
0
11
-84.044400906293163
21
-80.13932659760691
31
0
0
LINE
5
340
100
AcDbEntity
8
0
100
AcDbLine
10
-84.044400906293163
20
-80.13932659760691
30
0
11
-84.044400906293163
21
-81.29167034760691
31
0
0
SPLINE
5
341
100
AcDbEntity
8
0
100
AcDbSpline
70
0
71
3
72
9
73
5
74
0
42
0.000000001
43
0.0000000001
44
0.0000000001
40
0
40
0
40
0
40
0
40
0.033570223709851923
40
0.051372830188453469
40
0.051372830188453469
40
0.051372830188453469
40
0.051372830188453469
10
-84.044400906293163
20
-81.29167034760691
30
0
10
-83.930288182507581
20
-81.305284924774838
30
0
10
-83.755660404270344
20
-81.326119440713143
30
0
10
-83.596593758884609
20
-81.257021587350067
30
0
10
-83.541471218793163
20
-81.23307659760691
30
0
0
SPLINE
5
342
100
AcDbEntity
8
0
100
AcDbSpline
70
0
71
3
72
9
73
5
74
0
42
0.000000001
43
0.0000000001
44
0.0000000001
40
0
40
0
40
0
40
0
40
0.012205200057962795
40
0.025310003862640464
40
0.025310003862640464
40
0.025310003862640464
40
0.025310003862640464
10
-83.541471218793163
20
-81.23307659760691
30
0
10
-83.517269045746318
20
-81.199331398815929
30
0
10
-83.467080839867577
20
-81.129353757508142
30
0
10
-83.461403152270037
20
-81.043272194887805
30
0
10
-83.458463406293163
20
-80.99870159760691
30
0
0
LINE
5
343
100
AcDbEntity
8
0
100
AcDbLine
10
-83.458463406293163
20
-80.99870159760691
30
0
11
-83.458463406293163
21
-80.13932659760691
31
0
0
LINE
5
344
100
AcDbEntity
8
0
100
AcDbLine
10
-77.472135281293163
20
-73.27409222260691
30
0
11
-72.970182156293163
21
-73.27409222260691
31
0
0
LINE
5
345
100
AcDbEntity
8
0
100
AcDbLine
10
-72.970182156293163
20
-73.27409222260691
30
0
11
-73.311979031293163
21
-77.02409222260691
31
0
0
LINE
5
346
100
AcDbEntity
8
0
100
AcDbLine
10
-73.311979031293163
20
-77.02409222260691
30
0
11
-72.491666531293163
21
-77.02409222260691
31
0
0
LINE
5
347
100
AcDbEntity
8
0
100
AcDbLine
10
-72.491666531293163
20
-77.02409222260691
30
0
11
-72.652799343793163
21
-80.98893597260691
31
0
0
SPLINE
5
348
100
AcDbEntity
8
0
100
AcDbSpline
70
0
71
3
72
9
73
5
74
0
42
0.000000001
43
0.0000000001
44
0.0000000001
40
0
40
0
40
0
40
0
40
0.055304756322937257
40
0.10491492579486449
40
0.10491492579486449
40
0.10491492579486449
40
0.10491492579486449
10
-72.652799343793163
20
-80.98893597260691
30
0
10
-72.680422751749788
20
-81.175868482903269
30
0
10
-72.73282525722415
20
-81.530485549324624
30
0
10
-72.970228245682861
20
-81.797658782580186
30
0
10
-73.082486843793163
20
-81.92399456635691
30
0
0
SPLINE
5
349
100
AcDbEntity
8
0
100
AcDbSpline
70
0
71
3
72
9
73
5
74
0
42
0.000000001
43
0.0000000001
44
0.0000000001
40
0
40
0
40
0
40
0
40
0.052297014751994123
40
0.11574954010805828
40
0.11574954010805828
40
0.11574954010805828
40
0.11574954010805828
10
-73.082486843793163
20
-81.92399456635691
30
0
10
-73.231526088389728
20
-82.02016378988796
30
0
10
-73.561396236846861
20
-82.233016157256486
30
0
10
-73.955377935716399
20
-82.249455415933227
30
0
10
-74.171354031293163
20
-82.25846722260691
30
0
0
LINE
5
350
100
AcDbEntity
8
0
100
AcDbLine
10
-74.171354031293163
20
-82.25846722260691
30
0
11
-75.987760281293163
21
-82.25846722260691
31
0
0
SPLINE
5
351
100
AcDbEntity
8
0
100
AcDbSpline
70
0
71
3
72
9
73
5
74
0
42
0.000000001
43
0.0000000001
44
0.0000000001
40
0
40
0
40
0
40
0
40
0.074858468346628126
40
0.13811680717749392
40
0.13811680717749392
40
0.13811680717749392
40
0.13811680717749392
10
-75.987760281293163
20
-82.25846722260691
30
0
10
-76.018694700872402
20
-82.010838618746789
30
0
10
-76.075769917057571
20
-81.553954142128703
30
0
10
-76.149365538478534
20
-81.099446836551138
30
0
10
-76.183072781293163
20
-80.89127972260691
30
0
0
SPLINE
5
352
100
AcDbEntity
8
0
100
AcDbSpline
70
0
71
3
72
9
73
5
74
0
42
0.000000001
43
0.0000000001
44
0.0000000001
40
0
40
0
40
0
40
0
40
0.091252763784698307
40
0.17208690993285897
40
0.17208690993285897
40
0.17208690993285897
40
0.17208690993285897
10
-76.183072781293163
20
-80.89127972260691
30
0
10
-75.879667485572554
20
-80.914040779619611
30
0
10
-75.307497639615718
20
-80.956964191532492
30
0
10
-74.733803388333911
20
-80.965428700512859
30
0
10
-74.464322781293163
20
-80.96940472260691
30
0
0
SPLINE
5
353
100
AcDbEntity
8
0
100
AcDbSpline
70
0
71
3
72
9
73
5
74
0
42
0.000000001
43
0.0000000001
44
0.0000000001
40
0
40
0
40
0
40
0
40
0.03354408007680236
40
0.062600212218746593
40
0.062600212218746593
40
0.062600212218746593
40
0.062600212218746593
10
-74.464322781293163
20
-80.96940472260691
30
0
10
-74.342877063999353
20
-80.96013536887429
30
0
10
-74.116234161339804
20
-80.942836831860788
30
0
10
-74.025486588955673
20
-80.737543830630329
30
0
10
-73.983365750043163
20
-80.64225628510691
30
0
0
SPLINE
5
354
100
AcDbEntity
8
0
100
AcDbSpline
70
0
71
3
72
9
73
5
74
0
42
0.000000001
43
0.0000000001
44
0.0000000001
40
0
40
0
40
0
40
0
40
0.076361908205779913
40
0.23921263820476352
40
0.23921263820476352
40
0.23921263820476352
40
0.23921263820476352
10
-73.983365750043163
20
-80.64225628510691
30
0
10
-73.958335667375195
20
-80.388890304411802
30
0
10
-73.879925996242378
20
-79.595191638447517
30
0
10
-73.861578785750197
20
-78.797566627577524
30
0
10
-73.849088406293163
20
-78.25456097260691
30
0
0
LINE
5
355
100
AcDbEntity
8
0
100
AcDbLine
10
-73.849088406293163
20
-78.254560972606896
30
0
11
-77.384244656293163
21
-78.25456097260691
31
0
0
LINE
5
356
100
AcDbEntity
8
0
100
AcDbLine
10
-77.384244656293163
20
-78.25456097260691
30
0
11
-77.384244656293163
21
-77.39518597260691
31
0
0
LINE
5
357
100
AcDbEntity
8
0
100
AcDbLine
10
-77.384244656293163
20
-77.39518597260691
30
0
11
-77.140104031293163
21
-74.87565472260691
31
0
0
LINE
5
358
100
AcDbEntity
8
0
100
AcDbLine
10
-77.140104031293163
20
-74.87565472260691
30
0
11
-75.870572781293163
21
-74.87565472260691
31
0
0
LINE
5
359
100
AcDbEntity
8
0
100
AcDbLine
10
-75.870572781293163
20
-74.87565472260691
30
0
11
-76.075650906293163
21
-77.02409222260691
31
0
0
LINE
5
360
100
AcDbEntity
8
0
100
AcDbLine
10
-76.075650906293163
20
-77.02409222260691
30
0
11
-74.620572781293163
21
-77.02409222260691
31
0
0
LINE
5
361
100
AcDbEntity
8
0
100
AcDbLine
10
-74.620572781293163
20
-77.02409222260691
30
0
11
-74.366666531293163
21
-74.50456097260691
31
0
0
LINE
5
362
100
AcDbEntity
8
0
100
AcDbLine
10
-74.366666531293163
20
-74.50456097260691
30
0
11
-77.472135281293163
21
-74.50456097260691
31
0
0
LINE
5
363
100
AcDbEntity
8
0
100
AcDbLine
10
-77.472135281293163
20
-74.50456097260691
30
0
11
-77.472135281293163
21
-73.27409222260691
31
0
0
LINE
5
364
100
AcDbEntity
8
0
100
AcDbLine
10
-81.036588406293163
20
-82.08268597260691
30
0
11
-81.036588406293163
21
-78.93815472260691
31
0
0
LINE
5
365
100
AcDbEntity
8
0
100
AcDbLine
10
-81.036588406293163
20
-78.93815472260691
30
0
11
-81.231900906293163
21
-79.21159222260691
31
0
0
SPLINE
5
366
100
AcDbEntity
8
0
100
AcDbSpline
70
0
71
3
72
9
73
5
74
0
42
0.000000001
43
0.0000000001
44
0.0000000001
40
0
40
0
40
0
40
0
40
0.079477804696415535
40
0.14965496461733746
40
0.14965496461733746
40
0.14965496461733746
40
0.14965496461733746
10
-81.231900906293163
20
-79.21159222260691
30
0
10
-81.33121897331138
20
-78.9659583161406
30
0
10
-81.51823271711379
20
-78.503435052929575
30
0
10
-81.722195076607292
20
-78.048139289217787
30
0
10
-81.817838406293163
20
-77.83463909760691
30
0
0
SPLINE
5
367
100
AcDbEntity
8
0
100
AcDbSpline
70
0
71
3
72
9
73
5
74
0
42
0.000000001
43
0.0000000001
44
0.0000000001
40
0
40
0
40
0
40
0
40
0.1658491309547139
40
0.34812802702082551
40
0.34812802702082551
40
0.34812802702082551
40
0.34812802702082551
10
-81.817838406293163
20
-77.83463909760691
30
0
10
-81.554321346877259
20
-77.346861692880566
30
0
10
-81.001182036151263
20
-76.322985447312007
30
0
10
-80.671893579252597
20
-75.206393175001324
30
0
10
-80.499479031293163
20
-74.62174847260691
30
0
0
LINE
5
368
100
AcDbEntity
8
0
100
AcDbLine
10
-80.499479031293163
20
-74.621748472606896
30
0
11
-81.602994656293163
21
-74.62174847260691
31
0
0
LINE
5
369
100
AcDbEntity
8
0
100
AcDbLine
10
-81.602994656293163
20
-74.62174847260691
30
0
11
-81.602994656293163
21
-73.39127972260691
31
0
0
LINE
5
370
100
AcDbEntity
8
0
100
AcDbLine
10
-81.602994656293163
20
-73.39127972260691
30
0
11
-77.794400906293163
21
-73.39127972260691
31
0
0
LINE
5
371
100
AcDbEntity
8
0
100
AcDbLine
10
-77.794400906293163
20
-73.39127972260691
30
0
11
-77.794400906293163
21
-74.62174847260691
31
0
0
LINE
5
372
100
AcDbEntity
8
0
100
AcDbLine
10
-77.794400906293163
20
-74.62174847260691
30
0
11
-79.190885281293163
21
-74.62174847260691
31
0
0
SPLINE
5
373
100
AcDbEntity
8
0
100
AcDbSpline
70
0
71
3
72
9
73
5
74
0
42
0.000000001
43
0.0000000001
44
0.0000000001
40
0
40
0
40
0
40
0
40
0.10034031182371263
40
0.19654658843445022
40
0.19654658843445022
40
0.19654658843445022
40
0.19654658843445022
10
-79.190885281293163
20
-74.62174847260691
30
0
10
-79.275088501360756
20
-74.945679043569939
30
0
10
-79.440025756773693
20
-75.580194199594814
30
0
10
-79.666142437660682
20
-76.195544677711354
30
0
10
-79.776822781293163
20
-76.49674847260691
30
0
0
LINE
5
374
100
AcDbEntity
8
0
100
AcDbLine
10
-79.776822781293163
20
-76.496748472606924
30
0
11
-77.921354031293163
21
-76.49674847260691
31
0
0
LINE
5
375
100
AcDbEntity
8
0
100
AcDbLine
10
-77.921354031293163
20
-76.49674847260691
30
0
11
-77.921354031293163
21
-82.08268597260691
31
0
0
LINE
5
376
100
AcDbEntity
8
0
100
AcDbLine
10
-77.921354031293163
20
-82.08268597260691
30
0
11
-79.171354031293163
21
-82.08268597260691
31
0
0
LINE
5
377
100
AcDbEntity
8
0
100
AcDbLine
10
-79.171354031293163
20
-82.08268597260691
30
0
11
-79.171354031293163
21
-81.36002972260691
31
0
0
LINE
5
378
100
AcDbEntity
8
0
100
AcDbLine
10
-79.171354031293163
20
-81.36002972260691
30
0
11
-79.786588406293163
21
-81.36002972260691
31
0
0
LINE
5
379
100
AcDbEntity
8
0
100
AcDbLine
10
-79.786588406293163
20
-81.36002972260691
30
0
11
-79.786588406293163
21
-82.08268597260691
31
0
0
LINE
5
380
100
AcDbEntity
8
0
100
AcDbLine
10
-79.786588406293163
20
-82.08268597260691
30
0
11
-81.036588406293163
21
-82.08268597260691
31
0
0
LWPOLYLINE
5
381
100
AcDbEntity
8
0
100
AcDbPolyline
90
4
70
1
43
0.0
10
-79.786588406293163
20
-77.68815472260691
10
-79.171354031293163
20
-77.68815472260691
10
-79.171354031293163
20
-80.16862347260691
10
-79.786588406293163
20
-80.16862347260691
0
LWPOLYLINE
5
382
100
AcDbEntity
8
0
100
AcDbPolyline
90
4
70
1
43
0.0
10
-74.435025906293163
20
-79.05534222260691
10
-77.638150906293163
20
-79.05534222260691
10
-77.638150906293163
20
-80.28581097260691
10
-74.435025906293163
20
-80.28581097260691
0
LWPOLYLINE
5
383
100
AcDbEntity
8
0
100
AcDbPolyline
90
4
70
1
43
0.0
10
-67.315885281293163
20
-73.20573284760691
10
-71.144010281293163
20
-73.20573284760691
10
-71.144010281293163
20
-75.95963909760691
10
-67.315885281293163
20
-75.95963909760691
0
LWPOLYLINE
5
384
100
AcDbEntity
8
0
100
AcDbPolyline
90
4
70
1
43
0.0
10
-68.507291531293163
20
-74.20182659760691
10
-68.507291531293163
20
-74.96354534760691
10
-69.952604031293163
20
-74.96354534760691
10
-69.952604031293163
20
-74.20182659760691
0
LWPOLYLINE
5
385
100
AcDbEntity
8
0
100
AcDbPolyline
90
4
70
1
43
0.0
10
-62.735807156293163
20
-73.20573284760691
10
-66.554166531293163
20
-73.20573284760691
10
-66.554166531293163
20
-75.95963909760691
10
-62.735807156293163
20
-75.95963909760691
0
LWPOLYLINE
5
386
100
AcDbEntity
8
0
100
AcDbPolyline
90
4
70
1
43
0.0
10
-63.927213406293163
20
-74.20182659760691
10
-63.927213406293163
20
-74.96354534760691
10
-65.352994656293163
20
-74.96354534760691
10
-65.352994656293163
20
-74.20182659760691
0
LINE
5
387
100
AcDbEntity
8
0
100
AcDbLine
10
-66.563932156293163
20
-82.35612347260691
30
0
11
-66.563932156293163
21
-79.19206097260691
31
0
0
LINE
5
388
100
AcDbEntity
8
0
100
AcDbLine
10
-66.563932156293163
20
-79.19206097260691
30
0
11
-64.532682156293163
21
-79.19206097260691
31
0
0
SPLINE
5
389
100
AcDbEntity
8
0
100
AcDbSpline
70
0
71
3
72
9
73
5
74
0
42
0.000000001
43
0.0000000001
44
0.0000000001
40
0
40
0
40
0
40
0
40
0.14908118972530818
40
0.27148819609456171
40
0.27148819609456171
40
0.27148819609456171
40
0.27148819609456171
10
-64.532682156293163
20
-79.19206097260691
30
0
10
-65.021943867978734
20
-79.06975388536992
30
0
10
-65.912926692628844
20
-78.847023368228676
30
0
10
-66.624128864958223
20
-78.270403385311454
30
0
10
-66.944791531293163
20
-78.01042034760691
30
0
0
SPLINE
5
390
100
AcDbEntity
8
0
100
AcDbSpline
70
0
71
3
72
9
73
5
74
0
42
0.000000001
43
0.0000000001
44
0.0000000001
40
0
40
0
40
0
40
0
40
0.12128636208198688
40
0.29049699563458253
40
0.29049699563458253
40
0.29049699563458253
40
0.29049699563458253
10
-66.944791531293163
20
-78.01042034760691
30
0
10
-67.262760542867795
20
-78.268750136534663
30
0
10
-68.024338687201038
20
-78.887484397157507
30
0
10
-68.992913993969552
20
-79.079951466423168
30
0
10
-69.557096218793163
20
-79.19206097260691
30
0
0
LINE
5
391
100
AcDbEntity
8
0
100
AcDbLine
10
-69.557096218793163
20
-79.192060972606924
30
0
11
-67.325650906293163
21
-79.19206097260691
31
0
0
LINE
5
392
100
AcDbEntity
8
0
100
AcDbLine
10
-67.325650906293163
20
-79.19206097260691
30
0
11
-67.325650906293163
21
-82.37565472260691
31
0
0
LINE
5
393
100
AcDbEntity
8
0
100
AcDbLine
10
-67.325650906293163
20
-82.37565472260691
30
0
11
-68.458463406293163
21
-82.37565472260691
31
0
0
LINE
5
394
100
AcDbEntity
8
0
100
AcDbLine
10
-68.458463406293163
20
-82.37565472260691
30
0
11
-68.458463406293163
21
-82.00456097260691
31
0
0
LINE
5
395
100
AcDbEntity
8
0
100
AcDbLine
10
-68.458463406293163
20
-82.00456097260691
30
0
11
-70.011197781293163
21
-82.00456097260691
31
0
0
LINE
5
396
100
AcDbEntity
8
0
100
AcDbLine
10
-70.011197781293163
20
-82.00456097260691
30
0
11
-70.011197781293163
21
-82.37565472260691
31
0
0
LINE
5
397
100
AcDbEntity
8
0
100
AcDbLine
10
-70.011197781293163
20
-82.37565472260691
30
0
11
-71.144010281293163
21
-82.37565472260691
31
0
0
LINE
5
398
100
AcDbEntity
8
0
100
AcDbLine
10
-71.144010281293163
20
-82.37565472260691
30
0
11
-71.144010281293163
21
-79.39713909760691
31
0
0
SPLINE
5
399
100
AcDbEntity
8
0
100
AcDbSpline
70
0
71
3
72
9
73
5
74
0
42
0.000000001
43
0.0000000001
44
0.0000000001
40
0
40
0
40
0
40
0
40
0.02130887570705986
40
0.04307165373251548
40
0.04307165373251548
40
0.04307165373251548
40
0.04307165373251548
10
-71.144010281293163
20
-79.39713909760691
30
0
10
-71.214782126118322
20
-79.403259318249383
30
0
10
-71.357833333334767
20
-79.415630126916327
30
0
10
-71.501239213567246
20
-79.422808806998063
30
0
10
-71.573697781293163
20
-79.42643597260691
30
0
0
SPLINE
5
400
100
AcDbEntity
8
0
100
AcDbSpline
70
0
71
3
72
9
73
5
74
0
42
0.000000001
43
0.0000000001
44
0.0000000001
40
0
40
0
40
0
40
0
40
0.049006631713828429
40
0.10176643189972297
40
0.10176643189972297
40
0.10176643189972297
40
0.10176643189972297
10
-71.573697781293163
20
-79.42643597260691
30
0
10
-71.597737093010508
20
-79.264727320531023
30
0
10
-71.647656764966015
20
-78.92892557383739
30
0
10
-71.734007975284968
20
-78.600573241844842
30
0
10
-71.778775906293163
20
-78.43034222260691
30
0
0
SPLINE
5
401
100
AcDbEntity
8
0
100
AcDbSpline
70
0
71
3
72
9
73
5
74
0
42
0.000000001
43
0.0000000001
44
0.0000000001
40
0
40
0
40
0
40
0
40
0.24261440061148751
40
0.37856067193985998
40
0.37856067193985998
40
0.37856067193985998
40
0.37856067193985998
10
-71.778775906293163
20
-78.43034222260691
30
0
10
-70.949948346634727
20
-78.433360046827389
30
0
10
-69.65669651526872
20
-78.438068875164959
30
0
10
-68.541546196806607
20
-77.814448872934122
30
0
10
-68.141080593793163
20
-77.59049847260691
30
0
0
LINE
5
402
100
AcDbEntity
8
0
100
AcDbLine
10
-68.141080593793163
20
-77.590498472606924
30
0
11
-71.651822781293163
21
-77.59049847260691
31
0
0
LINE
5
403
100
AcDbEntity
8
0
100
AcDbLine
10
-71.651822781293163
20
-77.59049847260691
30
0
11
-71.651822781293163
21
-76.59440472260691
31
0
0
LINE
5
404
100
AcDbEntity
8
0
100
AcDbLine
10
-71.651822781293163
20
-76.59440472260691
30
0
11
-67.672330593793163
21
-76.59440472260691
31
0
0
SPLINE
5
405
100
AcDbEntity
8
0
100
AcDbSpline
70
0
71
3
72
9
73
5
74
0
42
0.000000001
43
0.0000000001
44
0.0000000001
40
0
40
0
40
0
40
0
40
0.023741028245577056
40
0.049260731417383574
40
0.049260731417383574
40
0.049260731417383574
40
0.049260731417383574
10
-67.672330593793163
20
-76.59440472260691
30
0
10
-67.658592624057675
20
-76.516427074945355
30
0
10
-67.630087437577956
20
-76.354629703817125
30
0
10
-67.616100181020585
20
-76.190929147937197
30
0
10
-67.608854031293163
20
-76.10612347260691
30
0
0
LINE
5
406
100
AcDbEntity
8
0
100
AcDbLine
10
-67.608854031293177
20
-76.106123472606924
30
0
11
-66.241666531293163
21
-76.10612347260691
31
0
0
SPLINE
5
407
100
AcDbEntity
8
0
100
AcDbSpline
70
0
71
3
72
9
73
5
74
0
42
0.000000001
43
0.0000000001
44
0.0000000001
40
0
40
0
40
0
40
0
40
0.025316570566918724
40
0.049318214088855936
40
0.049318214088855936
40
0.049318214088855936
40
0.049318214088855936
10
-66.241666531293163
20
-76.10612347260691
30
0
10
-66.250413565540114
20
-76.190088347639715
30
0
10
-66.267453318475575
20
-76.353657013935418
30
0
10
-66.296089544304735
20
-76.515594685728104
30
0
10
-66.310025906293163
20
-76.59440472260691
30
0
0
LINE
5
408
100
AcDbEntity
8
0
100
AcDbLine
10
-66.310025906293163
20
-76.59440472260691
30
0
11
-64.991666531293163
21
-76.59440472260691
31
0
0
LINE
5
409
100
AcDbEntity
8
0
100
AcDbLine
10
-64.991666531293163
20
-76.59440472260691
30
0
11
-65.147916531293163
21
-76.21354534760691
31
0
0
LINE
5
410
100
AcDbEntity
8
0
100
AcDbLine
10
-65.147916531293163
20
-76.21354534760691
30
0
11
-63.897916531293163
21
-76.05729534760691
31
0
0
LINE
5
411
100
AcDbEntity
8
0
100
AcDbLine
10
-63.897916531293163
20
-76.05729534760691
30
0
11
-63.673307156293163
21
-76.59440472260691
31
0
0
LINE
5
412
100
AcDbEntity
8
0
100
AcDbLine
10
-63.673307156293163
20
-76.59440472260691
30
0
11
-62.198697781293163
21
-76.59440472260691
31
0
0
LINE
5
413
100
AcDbEntity
8
0
100
AcDbLine
10
-62.198697781293163
20
-76.59440472260691
30
0
11
-62.198697781293163
21
-77.59049847260691
31
0
0
LINE
5
414
100
AcDbEntity
8
0
100
AcDbLine
10
-62.198697781293163
20
-77.59049847260691
30
0
11
-66.041471218793163
21
-77.59049847260691
31
0
0
SPLINE
5
415
100
AcDbEntity
8
0
100
AcDbSpline
70
0
71
3
72
9
73
5
74
0
42
0.000000001
43
0.0000000001
44
0.0000000001
40
0
40
0
40
0
40
0
40
0.16305345223160742
40
0.40916709234927107
40
0.40916709234927107
40
0.40916709234927107
40
0.40916709234927107
10
-66.041471218793163
20
-77.59049847260691
30
0
10
-65.545647328406019
20
-77.826125538207592
30
0
10
-64.301424548879481
20
-78.417409193911354
30
0
10
-62.915276870290768
20
-78.431582572850616
30
0
10
-62.081510281293163
20
-78.44010784760691
30
0
0
SPLINE
5
416
100
AcDbEntity
8
0
100
AcDbSpline
70
0
71
3
72
9
73
5
74
0
42
0.000000001
43
0.0000000001
44
0.0000000001
40
0
40
0
40
0
40
0
40
0.054495884486205362
40
0.10377662363826447
40
0.10377662363826447
40
0.10377662363826447
40
0.10377662363826447
10
-62.081510281293163
20
-78.44010784760691
30
0
10
-62.132762265128548
20
-78.614466842166252
30
0
10
-62.230361522161374
20
-78.946499030044791
30
0
10
-62.301591379681646
20
-79.285150642053878
30
0
10
-62.335416531293163
20
-79.44596722260691
30
0
0
SPLINE
5
417
100
AcDbEntity
8
0
100
AcDbSpline
70
0
71
3
72
9
73
5
74
0
42
0.000000001
43
0.0000000001
44
0.0000000001
40
0
40
0
40
0
40
0
40
0.020276904094576286
40
0.040089934920038671
40
0.040089934920038671
40
0.040089934920038671
40
0.040089934920038671
10
-62.335416531293163
20
-79.44596722260691
30
0
10
-62.402983422418544
20
-79.443961517613403
30
0
10
-62.536571481785579
20
-79.43999599199455
30
0
10
-62.669909541518606
20
-79.430920977293695
30
0
10
-62.735807156293163
20
-79.42643597260691
30
0
0
LINE
5
418
100
AcDbEntity
8
0
100
AcDbLine
10
-62.735807156293177
20
-79.42643597260691
30
0
11
-62.735807156293163
21
-82.37565472260691
31
0
0
LINE
5
419
100
AcDbEntity
8
0
100
AcDbLine
10
-62.735807156293163
20
-82.37565472260691
30
0
11
-63.868619656293163
21
-82.37565472260691
31
0
0
LINE
5
420
100
AcDbEntity
8
0
100
AcDbLine
10
-63.868619656293163
20
-82.37565472260691
30
0
11
-63.868619656293163
21
-82.00456097260691
31
0
0
LINE
5
421
100
AcDbEntity
8
0
100
AcDbLine
10
-63.868619656293163
20
-82.00456097260691
30
0
11
-65.431119656293163
21
-82.00456097260691
31
0
0
LINE
5
422
100
AcDbEntity
8
0
100
AcDbLine
10
-65.431119656293163
20
-82.00456097260691
30
0
11
-65.431119656293163
21
-82.35612347260691
31
0
0
LINE
5
423
100
AcDbEntity
8
0
100
AcDbLine
10
-65.431119656293163
20
-82.35612347260691
30
0
11
-66.563932156293163
21
-82.35612347260691
31
0
0
LWPOLYLINE
5
424
100
AcDbEntity
8
0
100
AcDbPolyline
90
4
70
1
43
0.0
10
-65.431119656293163
20
-80.18815472260691
10
-63.868619656293163
20
-80.18815472260691
10
-63.868619656293163
20
-81.00846722260691
10
-65.431119656293163
20
-81.00846722260691
0
LWPOLYLINE
5
425
100
AcDbEntity
8
0
100
AcDbPolyline
90
4
70
1
43
0.0
10
-70.011197781293163
20
-80.18815472260691
10
-68.458463406293163
20
-80.18815472260691
10
-68.458463406293163
20
-81.00846722260691
10
-70.011197781293163
20
-81.00846722260691
0
LINE
5
426
100
AcDbEntity
8
0
100
AcDbLine
10
-45.72213528129317
20
-74.025810972606905
30
0
11
-45.72213528129317
21
-79.333428160106905
31
0
0
SPLINE
5
427
100
AcDbEntity
8
0
100
AcDbSpline
70
0
71
3
72
9
73
5
74
0
42
0.000000001
43
0.0000000001
44
0.0000000001
40
0
40
0
40
0
40
0
40
0.056048886733352309
40
0.12158382077964525
40
0.12158382077964525
40
0.12158382077964525
40
0.12158382077964525
10
-45.72213528129317
20
-79.333428160106905
30
0
10
-45.548068162021096
20
-79.401606193815411
30
0
10
-45.170473767793631
20
-79.549501117597885
30
0
10
-44.780169538502847
20
-79.659746791648175
30
0
10
-44.56979153129317
20
-79.719170347606905
30
0
0
SPLINE
5
428
100
AcDbEntity
8
0
100
AcDbSpline
70
0
71
3
72
9
73
5
74
0
42
0.000000001
43
0.0000000001
44
0.0000000001
40
0
40
0
40
0
40
0
40
0.14127839140688556
40
0.22240226545208647
40
0.22240226545208647
40
0.22240226545208647
40
0.22240226545208647
10
-44.56979153129317
20
-79.719170347606905
30
0
10
-44.631001930847859
20
-80.196095732889248
30
0
10
-44.727360131097925
20
-80.946877824064941
30
0
10
-45.1521493089964
20
-81.564278573889709
30
0
10
-45.30709621879317
20
-81.789482847606905
30
0
0
SPLINE
5
429
100
AcDbEntity
8
0
100
AcDbSpline
70
0
71
3
72
9
73
5
74
0
42
0.000000001
43
0.0000000001
44
0.0000000001
40
0
40
0
40
0
40
0
40
0.06104211386125126
40
0.13202293038751708
40
0.13202293038751708
40
0.13202293038751708
40
0.13202293038751708
10
-45.30709621879317
20
-81.789482847606905
30
0
10
-45.486355923737811
20
-81.891867505469648
30
0
10
-45.87406188688626
20
-82.113306798815302
30
0
10
-46.321446916222619
20
-82.131346487992673
30
0
10
-46.56197903129317
20
-82.141045347606905
30
0
0
LINE
5
430
100
AcDbEntity
8
0
100
AcDbLine
10
-46.56197903129317
20
-82.141045347606877
30
0
11
-48.90572903129317
21
-82.141045347606905
31
0
0
SPLINE
5
431
100
AcDbEntity
8
0
100
AcDbSpline
70
0
71
3
72
9
73
5
74
0
42
0.000000001
43
0.0000000001
44
0.0000000001
40
0
40
0
40
0
40
0
40
0.12473292429225068
40
0.24020524590863959
40
0.24020524590863959
40
0.24020524590863959
40
0.24020524590863959
10
-48.90572903129317
20
-82.141045347606905
30
0
10
-49.369798053427317
20
-82.090669404451049
30
0
10
-50.263482012276377
20
-81.993657601975542
30
0
10
-50.421542503712246
20
-81.117109955286821
30
0
10
-50.49752590629317
20
-80.695732847606905
30
0
0
LINE
5
432
100
AcDbEntity
8
0
100
AcDbLine
10
-50.497525906293177
20
-80.695732847606905
30
0
11
-50.49752590629317
21
-79.719170347606905
31
0
0
LINE
5
433
100
AcDbEntity
8
0
100
AcDbLine
10
-50.49752590629317
20
-79.719170347606905
30
0
11
-52.41158840629317
21
-79.719170347606905
31
0
0
LINE
5
434
100
AcDbEntity
8
0
100
AcDbLine
10
-52.41158840629317
20
-79.719170347606905
30
0
11
-52.41158840629317
21
-80.480889097606905
31
0
0
LINE
5
435
100
AcDbEntity
8
0
100
AcDbLine
10
-52.41158840629317
20
-80.480889097606905
30
0
11
-53.81783840629317
21
-80.480889097606905
31
0
0
LINE
5
436
100
AcDbEntity
8
0
100
AcDbLine
10
-53.81783840629317
20
-80.480889097606905
30
0
11
-53.81783840629317
21
-74.025810972606905
31
0
0
LINE
5
437
100
AcDbEntity
8
0
100
AcDbLine
10
-53.81783840629317
20
-74.025810972606905
30
0
11
-50.49752590629317
21
-74.025810972606905
31
0
0
LINE
5
438
100
AcDbEntity
8
0
100
AcDbLine
10
-50.49752590629317
20
-74.025810972606905
30
0
11
-50.49752590629317
21
-72.824639097606905
31
0
0
LINE
5
439
100
AcDbEntity
8
0
100
AcDbLine
10
-50.49752590629317
20
-72.824639097606905
30
0
11
-49.08151028129317
21
-72.824639097606905
31
0
0
LINE
5
440
100
AcDbEntity
8
0
100
AcDbLine
10
-49.08151028129317
20
-72.824639097606905
30
0
11
-49.08151028129317
21
-74.025810972606905
31
0
0
LINE
5
441
100
AcDbEntity
8
0
100
AcDbLine
10
-49.08151028129317
20
-74.025810972606905
30
0
11
-45.72213528129317
21
-74.025810972606905
31
0
0
LWPOLYLINE
5
442
100
AcDbEntity
8
0
100
AcDbPolyline
90
4
70
1
43
0.0
10
-49.08151028129317
20
-75.256279722606905
10
-47.12838528129317
20
-75.256279722606905
10
-47.12838528129317
20
-76.252373472606905
10
-49.08151028129317
20
-76.252373472606905
0
LWPOLYLINE
5
443
100
AcDbEntity
8
0
100
AcDbPolyline
90
4
70
1
43
0.0
10
-52.41158840629317
20
-76.252373472606905
10
-52.41158840629317
20
-75.256279722606905
10
-50.49752590629317
20
-75.256279722606905
10
-50.49752590629317
20
-76.252373472606905
0
LWPOLYLINE
5
444
100
AcDbEntity
8
0
100
AcDbPolyline
90
4
70
1
43
0.0
10
-47.12838528129317
20
-77.482842222606905
10
-47.12838528129317
20
-78.488701597606905
10
-49.08151028129317
20
-78.488701597606905
10
-49.08151028129317
20
-77.482842222606905
0
LWPOLYLINE
5
445
100
AcDbEntity
8
0
100
AcDbPolyline
90
4
70
1
43
0.0
10
-50.49752590629317
20
-78.488701597606905
10
-52.41158840629317
20
-78.488701597606905
10
-52.41158840629317
20
-77.482842222606905
10
-50.49752590629317
20
-77.482842222606905
0
LINE
5
446
100
AcDbEntity
8
0
100
AcDbLine
10
-48.48580715629317
20
-80.930107847606905
30
0
11
-47.02096340629317
21
-80.930107847606905
31
0
0
SPLINE
5
447
100
AcDbEntity
8
0
100
AcDbSpline
70
0
71
3
72
9
73
5
74
0
42
0.000000001
43
0.0000000001
44
0.0000000001
40
0
40
0
40
0
40
0
40
0.032498054171046169
40
0.058979505646257327
40
0.058979505646257327
40
0.058979505646257327
40
0.058979505646257327
10
-47.02096340629317
20
-80.930107847606905
30
0
10
-46.911354637528966
20
-80.927397530536368
30
0
10
-46.71242977383767
20
-80.922478677237564
30
0
10
-46.531093337974127
20
-80.841814065532276
30
0
10
-46.44967434379317
20
-80.805596128856905
30
0
0
SPLINE
5
448
100
AcDbEntity
8
0
100
AcDbSpline
70
0
71
3
72
9
73
5
74
0
42
0.000000001
43
0.0000000001
44
0.0000000001
40
0
40
0
40
0
40
0
40
0.022727135229778515
40
0.04448212330074959
40
0.04448212330074959
40
0.04448212330074959
40
0.04448212330074959
10
-46.44967434379317
20
-80.805596128856905
30
0
10
-46.386130918498232
20
-80.761049707928606
30
0
10
-46.261762121008196
20
-80.673862327367601
30
0
10
-46.205966405947052
20
-80.532792595561233
30
0
10
-46.17867825004317
20
-80.463799253856905
30
0
0
SPLINE
5
449
100
AcDbEntity
8
0
100
AcDbSpline
70
0
71
3
72
9
73
5
74
0
42
0.000000001
43
0.0000000001
44
0.0000000001
40
0
40
0
40
0
40
0
40
0.030248447070969291
40
0.075957952277378518
40
0.075957952277378518
40
0.075957952277378518
40
0.075957952277378518
10
-46.17867825004317
20
-80.463799253856905
30
0
10
-46.155164057900052
20
-80.365723561561865
30
0
10
-46.096116732909891
20
-80.119442199168645
30
0
10
-46.054684999963769
20
-79.869549328653491
30
0
10
-46.02975246879317
20
-79.719170347606905
30
0
0
LINE
5
450
100
AcDbEntity
8
0
100
AcDbLine
10
-46.02975246879317
20
-79.719170347606905
30
0
11
-49.08151028129317
21
-79.719170347606905
31
0
0
LINE
5
451
100
AcDbEntity
8
0
100
AcDbLine
10
-49.08151028129317
20
-79.719170347606905
30
0
11
-49.08151028129317
21
-80.412529722606905
31
0
0
SPLINE
5
452
100
AcDbEntity
8
0
100
AcDbSpline
70
0
71
3
72
9
73
5
74
0
42
0.000000001
43
0.0000000001
44
0.0000000001
40
0
40
0
40
0
40
0
40
0.041577083925834417
40
0.088090838838302293
40
0.088090838838302293
40
0.088090838838302293
40
0.088090838838302293
10
-49.08151028129317
20
-80.412529722606905
30
0
10
-49.051568272757677
20
-80.563361740306178
30
0
10
-48.98812907983352
20
-80.882934873104588
30
0
10
-48.659388742089398
20
-80.913806827609349
30
0
10
-48.48580715629317
20
-80.930107847606905
30
0
0
SPLINE
5
453
100
AcDbEntity
8
0
100
AcDbSpline
70
0
71
3
72
9
73
5
74
0
42
0.000000001
43
0.0000000001
44
0.0000000001
40
0
40
0
40
0
40
0
40
0.13247750613175768
40
0.26882714913549755
40
0.26882714913549755
40
0.26882714913549755
40
0.26882714913549755
10
-41.31783840629317
20
-76.750420347606905
30
0
10
-41.041568743880887
20
-77.107825823728248
30
0
10
-40.480954433515976
20
-77.833083250717834
30
0
10
-40.407718292010308
20
-78.747542414707269
30
0
10
-40.37057278129317
20
-79.211357847606905
30
0
0
SPLINE
5
454
100
AcDbEntity
8
0
100
AcDbSpline
70
0
71
3
72
9
73
5
74
0
42
0.000000001
43
0.0000000001
44
0.0000000001
40
0
40
0
40
0
40
0
40
0.075286438457143764
40
0.13709914319496264
40
0.13709914319496264
40
0.13709914319496264
40
0.13709914319496264
10
-40.37057278129317
20
-79.211357847606905
30
0
10
-40.381998890948658
20
-79.47225080243544
30
0
10
-40.402806221935791
20
-79.947345670855299
30
0
10
-40.728914332279309
20
-80.288164541568364
30
0
10
-40.87594387504317
20
-80.441826597606905
30
0
0
SPLINE
5
455
100
AcDbEntity
8
0
100
AcDbSpline
70
0
71
3
72
9
73
5
74
0
42
0.000000001
43
0.0000000001
44
0.0000000001
40
0
40
0
40
0
40
0
40
0.066948221754897716
40
0.15002137449797456
40
0.15002137449797456
40
0.15002137449797456
40
0.15002137449797456
10
-40.87594387504317
20
-80.441826597606905
30
0
10
-41.076038268045622
20
-80.546899864154454
30
0
10
-41.52442113887772
20
-80.782354002550605
30
0
10
-42.03255631225943
20
-80.795741500963061
30
0
10
-42.31393215629317
20
-80.803154722606905
30
0
0
SPLINE
5
456
100
AcDbEntity
8
0
100
AcDbSpline
70
0
71
3
72
9
73
5
74
0
42
0.000000001
43
0.0000000001
44
0.0000000001
40
0
40
0
40
0
40
0
40
0.080005519795726746
40
0.15360045485307272
40
0.15360045485307272
40
0.15360045485307272
40
0.15360045485307272
10
-42.31393215629317
20
-80.803154722606905
30
0
10
-42.342728401053137
20
-80.537756926677858
30
0
10
-42.398013540184621
20
-80.028226805808856
30
0
10
-42.5128273869353
20
-79.528782657560427
30
0
10
-42.56783840629317
20
-79.289482847606905
30
0
0
SPLINE
5
457
100
AcDbEntity
8
0
100
AcDbSpline
70
0
71
3
72
9
73
5
74
0
42
0.000000001
43
0.0000000001
44
0.0000000001
40
0
40
0
40
0
40
0
40
0.019654457580643294
40
0.035296614299043044
40
0.035296614299043044
40
0.035296614299043044
40
0.035296614299043044
10
-42.56783840629317
20
-79.289482847606905
30
0
10
-42.502828577142324
20
-79.297992176255548
30
0
10
-42.3860801573109
20
-79.313273721931495
30
0
10
-42.268418992057057
20
-79.317088953007712
30
0
10
-42.21627590629317
20
-79.318779722606905
30
0
0
SPLINE
5
458
100
AcDbEntity
8
0
100
AcDbSpline
70
0
71
3
72
9
73
5
74
0
42
0.000000001
43
0.0000000001
44
0.0000000001
40
0
40
0
40
0
40
0
40
0.042092137816324871
40
0.081097375386321113
40
0.081097375386321113
40
0.081097375386321113
40
0.081097375386321113
10
-42.21627590629317
20
-79.318779722606905
30
0
10
-42.059686421868477
20
-79.301716200058067
30
0
10
-41.757991215619931
20
-79.268840538109146
30
0
10
-41.704766103715983
20
-78.972857044006645
30
0
10
-41.67916653129317
20
-78.830498472606905
30
0
0
SPLINE
5
459
100
AcDbEntity
8
0
100
AcDbSpline
70
0
71
3
72
9
73
5
74
0
42
0.000000001
43
0.0000000001
44
0.0000000001
40
0
40
0
40
0
40
0
40
0.096710816583358297
40
0.21534532567573458
40
0.21534532567573458
40
0.21534532567573458
40
0.21534532567573458
10
-41.67916653129317
20
-78.830498472606905
30
0
10
-41.728084177660975
20
-78.506315004316505
30
0
10
-41.837008772246342
20
-77.784457853027632
30
0
10
-42.29564359452997
20
-77.212176541320062
30
0
10
-42.54830715629317
20
-76.896904722606905
30
0
0
SPLINE
5
460
100
AcDbEntity
8
0
100
AcDbSpline
70
0
71
3
72
9
73
5
74
0
42
0.000000001
43
0.0000000001
44
0.0000000001
40
0
40
0
40
0
40
0
40
0.13532571917444433
40
0.26898507478178529
40
0.26898507478178529
40
0.26898507478178529
40
0.26898507478178529
10
-42.54830715629317
20
-76.896904722606905
30
0
10
-42.41558768631652
20
-76.465716497969083
30
0
10
-42.151783017296808
20
-75.608649581518989
30
0
10
-41.927387816919506
20
-74.740433057348255
30
0
10
-41.81588528129317
20
-74.309014097606905
30
0
0
LINE
5
461
100
AcDbEntity
8
0
100
AcDbLine
10
-41.81588528129317
20
-74.309014097606905
30
0
11
-42.60690090629317
21
-74.309014097606905
31
0
0
LINE
5
462
100
AcDbEntity
8
0
100
AcDbLine
10
-42.60690090629317
20
-74.309014097606905
30
0
11
-42.60690090629317
21
-82.414482847606905
31
0
0
LINE
5
463
100
AcDbEntity
8
0
100
AcDbLine
10
-42.60690090629317
20
-82.414482847606905
30
0
11
-43.89596340629317
21
-82.414482847606905
31
0
0
LINE
5
464
100
AcDbEntity
8
0
100
AcDbLine
10
-43.89596340629317
20
-82.414482847606905
30
0
11
-43.89596340629317
21
-73.176201597606905
31
0
0
LINE
5
465
100
AcDbEntity
8
0
100
AcDbLine
10
-43.89596340629317
20
-73.176201597606905
30
0
11
-40.49752590629317
21
-73.176201597606905
31
0
0
LINE
5
466
100
AcDbEntity
8
0
100
AcDbLine
10
-40.49752590629317
20
-73.176201597606905
30
0
11
-40.49752590629317
21
-74.113701597606905
31
0
0
SPLINE
5
467
100
AcDbEntity
8
0
100
AcDbSpline
70
0
71
3
72
9
73
5
74
0
42
0.000000001
43
0.0000000001
44
0.0000000001
40
0
40
0
40
0
40
0
40
0.1275863115962613
40
0.27614262198379425
40
0.27614262198379425
40
0.27614262198379425
40
0.27614262198379425
10
-40.49752590629317
20
-74.113701597606905
30
0
10
-40.62009077663415
20
-74.520954572835592
30
0
10
-40.885365195461787
20
-75.402396343377717
30
0
10
-41.166562715102152
20
-76.278892267081787
30
0
10
-41.31783840629317
20
-76.750420347606905
30
0
0
LWPOLYLINE
5
468
100
AcDbEntity
8
0
100
AcDbPolyline
90
8
70
1
43
0.0
10
-40.97604153129317
20
-82.170342222606905
10
-34.56002590629317
20
-82.170342222606905
10
-34.56002590629317
20
-80.910576597606905
10
-35.15572903129317
20
-80.910576597606905
10
-35.15572903129317
20
-73.185967222606905
10
-40.07760403129317
20
-73.185967222606905
10
-40.07760403129317
20
-80.910576597606905
10
-40.97604153129317
20
-80.910576597606905
0
LWPOLYLINE
5
469
100
AcDbEntity
8
0
100
AcDbPolyline
90
4
70
1
43
0.0
10
-36.48385403129317
20
-75.764092222606905
10
-38.74947903129317
20
-75.764092222606905
10
-38.74947903129317
20
-74.445732847606905
10
-36.48385403129317
20
-74.445732847606905
0
LWPOLYLINE
5
470
100
AcDbEntity
8
0
100
AcDbPolyline
90
4
70
1
43
0.0
10
-36.48385403129317
20
-78.312920347606905
10
-38.74947903129317
20
-78.312920347606905
10
-38.74947903129317
20
-76.994560972606905
10
-36.48385403129317
20
-76.994560972606905
0
LWPOLYLINE
5
471
100
AcDbEntity
8
0
100
AcDbPolyline
90
4
70
1
43
0.0
10
-36.48385403129317
20
-80.910576597606905
10
-38.74947903129317
20
-80.910576597606905
10
-38.74947903129317
20
-79.543389097606905
10
-36.48385403129317
20
-79.543389097606905
0
LINE
5
472
100
AcDbEntity
8
0
100
AcDbLine
10
-11.237525906293166
20
-74.728935972606905
30
0
11
-12.966041531293166
21
-74.728935972606905
31
0
0
SPLINE
5
473
100
AcDbEntity
8
0
100
AcDbSpline
70
0
71
3
72
9
73
5
74
0
42
0.000000001
43
0.0000000001
44
0.0000000001
40
0
40
0
40
0
40
0
40
0.11485434762234788
40
0.2197464911529507
40
0.2197464911529507
40
0.2197464911529507
40
0.2197464911529507
10
-12.966041531293166
20
-74.728935972606905
30
0
10
-12.637094488062754
20
-74.925093857823427
30
0
10
-12.007732517693981
20
-75.300395340794267
30
0
10
-11.407059272378618
20
-75.720034710311495
30
0
10
-11.120338406293166
20
-75.920342222606905
30
0
0
LINE
5
474
100
AcDbEntity
8
0
100
AcDbLine
10
-11.120338406293166
20
-75.920342222606919
30
0
11
-11.852760281293166
21
-76.896904722606905
31
0
0
SPLINE
5
475
100
AcDbEntity
8
0
100
AcDbSpline
70
0
71
3
72
9
73
5
74
0
42
0.000000001
43
0.0000000001
44
0.0000000001
40
0
40
0
40
0
40
0
40
0.1348208991322728
40
0.27128699170809401
40
0.27128699170809401
40
0.27128699170809401
40
0.27128699170809401
10
-11.852760281293166
20
-76.896904722606905
30
0
10
-12.210792807175402
20
-76.624800010056092
30
0
10
-12.931226860837572
20
-76.077270143599094
30
0
10
-13.701577319455854
20
-75.602517476651883
30
0
10
-14.089088406293166
20
-75.363701597606905
30
0
0
LINE
5
476
100
AcDbEntity
8
0
100
AcDbLine
10
-14.089088406293166
20
-75.363701597606905
30
0
11
-13.547096218793166
21
-74.728935972606905
31
0
0
LINE
5
477
100
AcDbEntity
8
0
100
AcDbLine
10
-13.547096218793166
20
-74.728935972606905
30
0
11
-15.954322781293166
21
-74.728935972606905
31
0
0
LINE
5
478
100
AcDbEntity
8
0
100
AcDbLine
10
-15.954322781293166
20
-74.728935972606905
30
0
11
-15.300025906293166
21
-75.236748472606905
31
0
0
SPLINE
5
479
100
AcDbEntity
8
0
100
AcDbSpline
70
0
71
3
72
9
73
5
74
0
42
0.000000001
43
0.0000000001
44
0.0000000001
40
0
40
0
40
0
40
0
40
0.14988822746288019
40
0.29290150451390196
40
0.29290150451390196
40
0.29290150451390196
40
0.29290150451390196
10
-15.300025906293166
20
-75.236748472606905
30
0
10
-15.673443537075322
20
-75.570395846687845
30
0
10
-16.403151184696927
20
-76.222387130457079
30
0
10
-17.236756427878063
20
-76.734667335902898
30
0
10
-17.643775906293165
20
-76.984795347606905
30
0
0
SPLINE
5
480
100
AcDbEntity
8
0
100
AcDbSpline
70
0
71
3
72
9
73
5
74
0
42
0.000000001
43
0.0000000001
44
0.0000000001
40
0
40
0
40
0
40
0
40
0.062793044687940086
40
0.1196227734617937
40
0.1196227734617937
40
0.1196227734617937
40
0.1196227734617937
10
-17.643775906293165
20
-76.984795347606905
30
0
10
-17.766593857984137
20
-76.815161024102792
30
0
10
-18.000566013422439
20
-76.492002171833036
30
0
10
-18.26183918572675
20
-76.190521246273406
30
0
10
-18.385963406293165
20
-76.047295347606905
30
0
0
SPLINE
5
481
100
AcDbEntity
8
0
100
AcDbSpline
70
0
71
3
72
9
73
5
74
0
42
0.000000001
43
0.0000000001
44
0.0000000001
40
0
40
0
40
0
40
0
40
0.12073346346213246
40
0.23414834635793935
40
0.23414834635793935
40
0.23414834635793935
40
0.23414834635793935
10
-18.385963406293165
20
-76.047295347606905
30
0
10
-18.031827149290187
20
-75.853669560765368
30
0
10
-17.34502154805234
20
-75.478155130042339
30
0
10
-16.746944293727818
20
-74.973416964414582
30
0
10
-16.457252468793165
20
-74.728935972606905
30
0
0
LINE
5
482
100
AcDbEntity
8
0
100
AcDbLine
10
-16.457252468793165
20
-74.728935972606905
30
0
11
-17.848854031293165
21
-74.728935972606905
31
0
0
LINE
5
483
100
AcDbEntity
8
0
100
AcDbLine
10
-17.848854031293165
20
-74.728935972606905
30
0
11
-17.848854031293165
21
-73.644951597606905
31
0
0
LINE
5
484
100
AcDbEntity
8
0
100
AcDbLine
10
-17.848854031293165
20
-73.644951597606905
30
0
11
-15.260963406293166
21
-73.644951597606905
31
0
0
SPLINE
5
485
100
AcDbEntity
8
0
100
AcDbSpline
70
0
71
3
72
9
73
5
74
0
42
0.000000001
43
0.0000000001
44
0.0000000001
40
0
40
0
40
0
40
0
40
0.039911578916679236
40
0.080019804480059839
40
0.080019804480059839
40
0.080019804480059839
40
0.080019804480059839
10
-15.260963406293166
20
-73.644951597606905
30
0
10
-15.313521308724191
20
-73.522732028150941
30
0
10
-15.41889606939684
20
-73.277690706385116
30
0
10
-15.528361707648113
20
-73.034449303732359
30
0
10
-15.583229031293166
20
-72.912529722606905
30
0
0
LINE
5
486
100
AcDbEntity
8
0
100
AcDbLine
10
-15.583229031293166
20
-72.912529722606905
30
0
11
-14.225807156293166
21
-72.648857847606905
31
0
0
SPLINE
5
487
100
AcDbEntity
8
0
100
AcDbSpline
70
0
71
3
72
9
73
5
74
0
42
0.000000001
43
0.0000000001
44
0.0000000001
40
0
40
0
40
0
40
0
40
0.049461830180513013
40
0.10969929327443369
40
0.10969929327443369
40
0.10969929327443369
40
0.10969929327443369
10
-14.225807156293166
20
-72.648857847606905
30
0
10
-14.15196430369754
20
-72.796314526113292
30
0
10
-13.988191375895527
20
-73.123352433156171
30
0
10
-13.845291282354871
20
-73.460060399905586
30
0
10
-13.766822781293166
20
-73.644951597606905
30
0
0
LINE
5
488
100
AcDbEntity
8
0
100
AcDbLine
10
-13.766822781293168
20
-73.644951597606905
30
0
11
-11.237525906293166
21
-73.644951597606905
31
0
0
LINE
5
489
100
AcDbEntity
8
0
100
AcDbLine
10
-11.237525906293166
20
-73.644951597606905
30
0
11
-11.237525906293166
21
-74.728935972606905
31
0
0
SPLINE
5
490
100
AcDbEntity
8
0
100
AcDbSpline
70
0
71
3
72
9
73
5
74
0
42
0.000000001
43
0.0000000001
44
0.0000000001
40
0
40
0
40
0
40
0
40
0.11792901993240687
40
0.20021744967625515
40
0.20021744967625515
40
0.20021744967625515
40
0.20021744967625515
10
-19.733619656293165
20
-72.834404722606905
30
0
10
-19.414130019766699
20
-73.063544905692112
30
0
10
-18.871707126233055
20
-73.452574366820215
30
0
10
-18.347502706351715
20
-73.865759465988006
30
0
10
-18.132057156293165
20
-74.035576597606905
30
0
0
LINE
5
491
100
AcDbEntity
8
0
100
AcDbLine
10
-18.132057156293165
20
-74.035576597606905
30
0
11
-19.040260281293165
21
-75.021904722606905
31
0
0
SPLINE
5
492
100
AcDbEntity
8
0
100
AcDbSpline
70
0
71
3
72
9
73
5
74
0
42
0.000000001
43
0.0000000001
44
0.0000000001
40
0
40
0
40
0
40
0
40
0.098640366066735277
40
0.2013330639350116
40
0.2013330639350116
40
0.2013330639350116
40
0.2013330639350116
10
-19.040260281293165
20
-75.021904722606905
30
0
10
-19.278878515353753
20
-74.795562823417271
30
0
10
-19.76591786942182
20
-74.333580474022014
30
0
10
-20.281292575395788
20
-73.903422226848761
30
0
10
-20.544166531293165
20
-73.684014097606905
30
0
0
LINE
5
493
100
AcDbEntity
8
0
100
AcDbLine
10
-20.544166531293165
20
-73.684014097606905
30
0
11
-19.733619656293165
21
-72.834404722606905
31
0
0
SPLINE
5
494
100
AcDbEntity
8
0
100
AcDbSpline
70
0
71
3
72
9
73
5
74
0
42
0.000000001
43
0.0000000001
44
0.0000000001
40
0
40
0
40
0
40
0
40
0.095416203349181036
40
0.19738401314530807
40
0.19738401314530807
40
0.19738401314530807
40
0.19738401314530807
10
-20.007057156293165
20
-75.383232847606905
30
0
10
-19.753069395270536
20
-75.574771961102741
30
0
10
-19.227654195328302
20
-75.971001925920632
30
0
10
-18.724180796505191
20
-76.394779670776472
30
0
10
-18.464088406293165
20
-76.613701597606905
30
0
0
LINE
5
495
100
AcDbEntity
8
0
100
AcDbLine
10
-18.464088406293165
20
-76.613701597606905
30
0
11
-19.342994656293165
21
-77.668389097606905
31
0
0
SPLINE
5
496
100
AcDbEntity
8
0
100
AcDbSpline
70
0
71
3
72
9
73
5
74
0
42
0.000000001
43
0.0000000001
44
0.0000000001
40
0
40
0
40
0
40
0
40
0.098617401429852189
40
0.19971550068077609
40
0.19971550068077609
40
0.19971550068077609
40
0.19971550068077609
10
-19.342994656293165
20
-77.668389097606905
30
0
10
-19.581350018138004
20
-77.44199225133741
30
0
10
-20.064056515577498
20
-76.983503598729541
30
0
10
-20.557866545228091
20
-76.536994733725223
30
0
10
-20.807838406293165
20
-76.310967222606905
30
0
0
LINE
5
497
100
AcDbEntity
8
0
100
AcDbLine
10
-20.807838406293165
20
-76.310967222606905
30
0
11
-20.007057156293165
21
-75.383232847606905
31
0
0
LINE
5
498
100
AcDbEntity
8
0
100
AcDbLine
10
-11.911354031293166
20
-78.635185972606905
30
0
11
-11.130104031293166
21
-79.504326597606905
31
0
0
SPLINE
5
499
100
AcDbEntity
8
0
100
AcDbSpline
70
0
71
3
72
9
73
5
74
0
42
0.000000001
43
0.0000000001
44
0.0000000001
40
0
40
0
40
0
40
0
40
0.06757768840318007
40
0.14937436242996166
40
0.14937436242996166
40
0.14937436242996166
40
0.14937436242996166
10
-11.130104031293166
20
-79.504326597606905
30
0
10
-11.316663419895786
20
-79.630725975395819
30
0
10
-11.729036059243537
20
-79.910120357105313
30
0
10
-12.162353021329469
20
-80.155881696502007
30
0
10
-12.399635281293166
20
-80.290459410106905
30
0
0
SPLINE
5
500
100
AcDbEntity
8
0
100
AcDbSpline
70
0
71
3
72
9
73
5
74
0
42
0.000000001
43
0.0000000001
44
0.0000000001
40
0
40
0
40
0
40
0
40
0.074433768158835706
40
0.15164794496247985
40
0.15164794496247985
40
0.15164794496247985
40
0.15164794496247985
10
-12.399635281293166
20
-80.290459410106905
30
0
10
-12.188283713048857
20
-80.421629354260048
30
0
10
-11.757685722625313
20
-80.688868981699301
30
0
10
-11.283601563953599
20
-80.868130577418782
30
0
10
-11.042213406293166
20
-80.959404722606905
30
0
0
SPLINE
5
501
100
AcDbEntity
8
0
100
AcDbSpline
70
0
71
3
72
9
73
5
74
0
42
0.000000001
43
0.0000000001
44
0.0000000001
40
0
40
0
40
0
40
0
40
0.071388071363083297
40
0.13750151489247239
40
0.13750151489247239
40
0.13750151489247239
40
0.13750151489247239
10
-11.042213406293166
20
-80.959404722606905
30
0
10
-11.189094264035436
20
-81.147143685706297
30
0
10
-11.472003440073378
20
-81.508750202560009
30
0
10
-11.696155445752513
20
-81.909361179326339
30
0
10
-11.803932156293166
20
-82.101982847606905
30
0
0
SPLINE
5
502
100
AcDbEntity
8
0
100
AcDbSpline
70
0
71
3
72
9
73
5
74
0
42
0.000000001
43
0.0000000001
44
0.0000000001
40
0
40
0
40
0
40
0
40
0.2188673045484702
40
0.44001117776318988
40
0.44001117776318988
40
0.44001117776318988
40
0.44001117776318988
10
-11.803932156293166
20
-82.101982847606905
30
0
10
-12.446533899257382
20
-81.731789701749761
30
0
10
-13.738421467104436
20
-80.987552811527635
30
0
10
-14.530728823321098
20
-79.72422140575614
30
0
10
-14.928932156293166
20
-79.089287535106905
30
0
0
SPLINE
5
503
100
AcDbEntity
8
0
100
AcDbSpline
70
0
71
3
72
9
73
5
74
0
42
0.000000001
43
0.0000000001
44
0.0000000001
40
0
40
0
40
0
40
0
40
0.040742966963570888
40
0.080831125220518565
40
0.080831125220518565
40
0.080831125220518565
40
0.080831125220518565
10
-14.928932156293166
20
-79.089287535106905
30
0
10
-15.024959041611389
20
-79.185361106823336
30
0
10
-15.215469497038793
20
-79.375964184717432
30
0
10
-15.415610045905373
20
-79.556427476197342
30
0
10
-15.514869656293166
20
-79.645928160106905
30
0
0
LINE
5
504
100
AcDbEntity
8
0
100
AcDbLine
10
-15.514869656293166
20
-79.645928160106905
30
0
11
-15.514869656293166
21
-80.930107847606905
31
0
0
LINE
5
505
100
AcDbEntity
8
0
100
AcDbLine
10
-15.514869656293166
20
-80.930107847606905
30
0
11
-14.196510281293166
21
-80.549248472606905
31
0
0
LINE
5
506
100
AcDbEntity
8
0
100
AcDbLine
10
-14.196510281293166
20
-80.549248472606905
30
0
11
-14.225807156293166
21
-81.779717222606905
31
0
0
SPLINE
5
507
100
AcDbEntity
8
0
100
AcDbSpline
70
0
71
3
72
9
73
5
74
0
42
0.000000001
43
0.0000000001
44
0.0000000001
40
0
40
0
40
0
40
0
40
0.14276382685302655
40
0.24105794724766916
40
0.24105794724766916
40
0.24105794724766916
40
0.24105794724766916
10
-14.225807156293166
20
-81.779717222606905
30
0
10
-14.690522292605719
20
-81.883981489205695
30
0
10
-15.475197789780161
20
-82.060032598451073
30
0
10
-16.23869942750644
20
-82.311815503610774
30
0
10
-16.550025906293165
20
-82.414482847606905
30
0
0
LINE
5
508
100
AcDbEntity
8
0
100
AcDbLine
10
-16.550025906293165
20
-82.414482847606905
30
0
11
-16.979713406293165
21
-81.506279722606905
31
0
0
SPLINE
5
509
100
AcDbEntity
8
0
100
AcDbSpline
70
0
71
3
72
9
73
5
74
0
42
0.000000001
43
0.0000000001
44
0.0000000001
40
0
40
0
40
0
40
0
40
0.032763999334708596
40
0.066854633881905962
40
0.066854633881905962
40
0.066854633881905962
40
0.066854633881905962
10
-16.979713406293165
20
-81.506279722606905
30
0
10
-16.902817593190527
20
-81.424122157910602
30
0
10
-16.745912406509532
20
-81.256480416367097
30
0
10
-16.726129345278437
20
-81.027393174127425
30
0
10
-16.716041531293165
20
-80.910576597606905
30
0
0
LINE
5
510
100
AcDbEntity
8
0
100
AcDbLine
10
-16.716041531293168
20
-80.910576597606905
30
0
11
-16.716041531293165
21
-80.588310972606905
31
0
0
SPLINE
5
511
100
AcDbEntity
8
0
100
AcDbSpline
70
0
71
3
72
9
73
5
74
0
42
0.000000001
43
0.0000000001
44
0.0000000001
40
0
40
0
40
0
40
0
40
0.074997281978947325
40
0.14837484242146518
40
0.14837484242146518
40
0.14837484242146518
40
0.14837484242146518
10
-16.716041531293165
20
-80.588310972606905
30
0
10
-16.92599767936056
20
-80.724456512214928
30
0
10
-17.341375537902977
20
-80.993807246704165
30
0
10
-17.785477199691108
20
-81.21255362280202
30
0
10
-18.005104031293165
20
-81.320732847606905
30
0
0
SPLINE
5
512
100
AcDbEntity
8
0
100
AcDbSpline
70
0
71
3
72
9
73
5
74
0
42
0.000000001
43
0.0000000001
44
0.0000000001
40
0
40
0
40
0
40
0
40
0.067306696706262367
40
0.1376344538399995
40
0.1376344538399995
40
0.1376344538399995
40
0.1376344538399995
10
-18.005104031293165
20
-81.320732847606905
30
0
10
-18.127054215547204
20
-81.132354130717928
30
0
10
-18.376428316890227
20
-80.747141320063349
30
0
10
-18.647727133885134
20
-80.377035266855273
30
0
10
-18.786354031293165
20
-80.187920347606905
30
0
0
SPLINE
5
513
100
AcDbEntity
8
0
100
AcDbSpline
70
0
71
3
72
9
73
5
74
0
42
0.000000001
43
0.0000000001
44
0.0000000001
40
0
40
0
40
0
40
0
40
0.16581754648442534
40
0.33206409178124574
40
0.33206409178124574
40
0.33206409178124574
40
0.33206409178124574
10
-18.786354031293165
20
-80.187920347606905
30
0
10
-18.272364662436406
20
-79.977319636726719
30
0
10
-17.243056144892591
20
-79.555573354324196
30
0
10
-16.361493745593322
20
-78.877169746602448
30
0
10
-15.920143093793166
20
-78.537529722606905
30
0
0
SPLINE
5
514
100
AcDbEntity
8
0
100
AcDbSpline
70
0
71
3
72
9
73
5
74
0
42
0.000000001
43
0.0000000001
44
0.0000000001
40
0
40
0
40
0
40
0
40
0.089088332462074454
40
0.14977397724940023
40
0.14977397724940023
40
0.14977397724940023
40
0.14977397724940023
10
-15.920143093793166
20
-78.537529722606905
30
0
10
-16.216354824517477
20
-78.559946483559571
30
0
10
-16.714341573089687
20
-78.597633208096255
30
0
10
-17.208981826411225
20
-78.666056052048788
30
0
10
-17.409400906293165
20
-78.693779722606905
30
0
0
LINE
5
515
100
AcDbEntity
8
0
100
AcDbLine
10
-17.409400906293165
20
-78.693779722606919
30
0
11
-17.760963406293165
21
-77.707451597606905
31
0
0
SPLINE
5
516
100
AcDbEntity
8
0
100
AcDbSpline
70
0
71
3
72
9
73
5
74
0
42
0.000000001
43
0.0000000001
44
0.0000000001
40
0
40
0
40
0
40
0
40
0.13983994803774674
40
0.32907176999618859
40
0.32907176999618859
40
0.32907176999618859
40
0.32907176999618859
10
-17.760963406293165
20
-77.707451597606905
30
0
10
-17.355227105122005
20
-77.471757040471729
30
0
10
-16.400447268232618
20
-76.917119927234211
30
0
10
-15.683187373458088
20
-76.073457021027167
30
0
10
-15.270729031293166
20
-75.588310972606905
30
0
0
LINE
5
517
100
AcDbEntity
8
0
100
AcDbLine
10
-15.270729031293166
20
-75.588310972606905
30
0
11
-14.108619656293166
21
-76.057060972606905
31
0
0
SPLINE
5
518
100
AcDbEntity
8
0
100
AcDbSpline
70
0
71
3
72
9
73
5
74
0
42
0.000000001
43
0.0000000001
44
0.0000000001
40
0
40
0
40
0
40
0
40
0.11652082910281375
40
0.23127263664007586
40
0.23127263664007586
40
0.23127263664007586
40
0.23127263664007586
10
-14.108619656293166
20
-76.057060972606905
30
0
10
-14.395148452008421
20
-76.319402678666904
30
0
10
-14.963855957512886
20
-76.840103213741315
30
0
10
-15.560584480288814
20
-77.328434730993521
30
0
10
-15.856666531293166
20
-77.570732847606905
30
0
0
LINE
5
519
100
AcDbEntity
8
0
100
AcDbLine
10
-15.856666531293166
20
-77.570732847606905
30
0
11
-13.786354031293166
21
-77.473076597606905
31
0
0
LINE
5
520
100
AcDbEntity
8
0
100
AcDbLine
10
-13.786354031293166
20
-77.473076597606905
30
0
11
-14.382057156293166
21
-76.984795347606905
31
0
0
LINE
5
521
100
AcDbEntity
8
0
100
AcDbLine
10
-14.382057156293166
20
-76.984795347606905
30
0
11
-13.600807156293166
21
-76.301201597606905
31
0
0
SPLINE
5
522
100
AcDbEntity
8
0
100
AcDbSpline
70
0
71
3
72
9
73
5
74
0
42
0.000000001
43
0.0000000001
44
0.0000000001
40
0
40
0
40
0
40
0
40
0.12530670685350687
40
0.26242421963284157
40
0.26242421963284157
40
0.26242421963284157
40
0.26242421963284157
10
-13.600807156293166
20
-76.301201597606905
30
0
10
-13.267159948948748
20
-76.552757461482969
30
0
10
-12.568417557430971
20
-77.079579631894958
30
0
10
-11.912353021423199
20
-77.658743061833562
30
0
10
-11.569557156293166
20
-77.961357847606905
30
0
0
LINE
5
523
100
AcDbEntity
8
0
100
AcDbLine
10
-11.569557156293166
20
-77.961357847606905
30
0
11
-12.419166531293166
21
-78.723076597606905
31
0
0
SPLINE
5
524
100
AcDbEntity
8
0
100
AcDbSpline
70
0
71
3
72
9
73
5
74
0
42
0.000000001
43
0.0000000001
44
0.0000000001
40
0
40
0
40
0
40
0
40
0.025377710432544848
40
0.051795711599836987
40
0.051795711599836987
40
0.051795711599836987
40
0.051795711599836987
10
-12.419166531293166
20
-78.723076597606905
30
0
10
-12.479202774079441
20
-78.663478980029765
30
0
10
-12.601736283363545
20
-78.541840701420341
30
0
10
-12.7265831200747
20
-78.422577661539265
30
0
10
-12.790260281293166
20
-78.361748472606905
30
0
0
LINE
5
525
100
AcDbEntity
8
0
100
AcDbLine
10
-12.790260281293166
20
-78.361748472606905
30
0
11
-14.108619656293166
21
-78.425225035106905
31
0
0
SPLINE
5
526
100
AcDbEntity
8
0
100
AcDbSpline
70
0
71
3
72
9
73
5
74
0
42
0.000000001
43
0.0000000001
44
0.0000000001
40
0
40
0
40
0
40
0
40
0.072524560517140305
40
0.14267283675199816
40
0.14267283675199816
40
0.14267283675199816
40
0.14267283675199816
10
-14.108619656293166
20
-78.425225035106905
30
0
10
-13.983051104508977
20
-78.632532457456122
30
0
10
-13.736028284072081
20
-79.040354825704938
30
0
10
-13.416240878193587
20
-79.39395014833579
30
0
10
-13.259010281293166
20
-79.567803160106905
30
0
0
SPLINE
5
527
100
AcDbEntity
8
0
100
AcDbSpline
70
0
71
3
72
9
73
5
74
0
42
0.000000001
43
0.0000000001
44
0.0000000001
40
0
40
0
40
0
40
0
40
0.081332271444575097
40
0.16397531547971517
40
0.16397531547971517
40
0.16397531547971517
40
0.16397531547971517
10
-13.259010281293166
20
-79.567803160106905
30
0
10
-13.028660415162637
20
-79.424505177878501
30
0
10
-12.564248302988887
20
-79.135599784900279
30
0
10
-12.130142162688509
20
-78.802877140476596
30
0
10
-11.911354031293166
20
-78.635185972606905
30
0
0
SPLINE
5
528
100
AcDbEntity
8
0
100
AcDbSpline
70
0
71
3
72
9
73
5
74
0
42
0.000000001
43
0.0000000001
44
0.0000000001
40
0
40
0
40
0
40
0
40
0.073489977977259896
40
0.13046739966635026
40
0.13046739966635026
40
0.13046739966635026
40
0.13046739966635026
10
-19.635963406293165
20
-78.176201597606905
30
0
10
-19.410298767399969
20
-78.2718890228969
30
0
10
-19.009674363319292
20
-78.441763744620403
30
0
10
-18.595943756913513
20
-78.576391604385165
30
0
10
-18.415260281293165
20
-78.635185972606905
30
0
0
LINE
5
529
100
AcDbEntity
8
0
100
AcDbLine
10
-18.415260281293165
20
-78.635185972606905
30
0
11
-19.342994656293165
21
-82.326592222606905
31
0
0
SPLINE
5
530
100
AcDbEntity
8
0
100
AcDbSpline
70
0
71
3
72
9
73
5
74
0
42
0.000000001
43
0.0000000001
44
0.0000000001
40
0
40
0
40
0
40
0
40
0.064004434461745086
40
0.13128145810510222
40
0.13128145810510222
40
0.13128145810510222
40
0.13128145810510222
10
-19.342994656293165
20
-82.326592222606905
30
0
10
-19.544191068827466
20
-82.255466434627749
30
0
10
-19.956871199901911
20
-82.10957814995956
30
0
10
-20.377458697119462
20
-81.988334569916276
30
0
10
-20.592994656293165
20
-81.926201597606905
30
0
0
SPLINE
5
531
100
AcDbEntity
8
0
100
AcDbSpline
70
0
71
3
72
9
73
5
74
0
42
0.000000001
43
0.0000000001
44
0.0000000001
40
0
40
0
40
0
40
0
40
0.18612292364536623
40
0.38712050628943628
40
0.38712050628943628
40
0.38712050628943628
40
0.38712050628943628
10
-20.592994656293165
20
-81.926201597606905
30
0
10
-20.418745917114617
20
-81.330562832572483
30
0
10
-20.056322746395328
20
-80.091682764660561
30
0
10
-19.779627090155717
20
-78.830844077446628
30
0
10
-19.635963406293165
20
-78.176201597606905
30
0
0
SPLINE
5
532
100
AcDbEntity
8
0
100
AcDbSpline
70
0
71
3
72
9
73
5
74
0
42
0.000000001
43
0.0000000001
44
0.0000000001
40
0
40
0
40
0
40
0
40
0.16282203016742858
40
0.32637602407801086
40
0.32637602407801086
40
0.32637602407801086
40
0.32637602407801086
10
0.9499740937068335
20
-77.600029722606905
30
0
10
0.51770328490215789
20
-77.929891985805554
30
0
10
-0.3487815989773857
20
-78.591099402550327
30
0
10
-1.3116517439997577
20
-79.10187944033575
30
0
10
-1.7941665312931665
20
-79.357842222606905
30
0
0
LINE
5
533
100
AcDbEntity
8
0
100
AcDbLine
10
-1.7941665312931665
20
-79.357842222606905
30
0
11
-1.7941665312931665
21
-80.373467222606905
31
0
0
SPLINE
5
534
100
AcDbEntity
8
0
100
AcDbSpline
70
0
71
3
72
9
73
5
74
0
42
0.000000001
43
0.0000000001
44
0.0000000001
40
0
40
0
40
0
40
0
40
0.045628178106950745
40
0.091873980718493675
40
0.091873980718493675
40
0.091873980718493675
40
0.091873980718493675
10
-1.7941665312931665
20
-80.373467222606905
30
0
10
-1.7691025486312295
20
-80.541515197429561
30
0
10
-1.7186353164219126
20
-80.879885849933984
30
0
10
-1.3791252472056459
20
-80.926284044148076
30
0
10
-1.2082290312931665
20
-80.949639097606905
30
0
0
LINE
5
535
100
AcDbEntity
8
0
100
AcDbLine
10
-1.2082290312931663
20
-80.949639097606905
30
0
11
-0.5734634062931665
21
-80.949639097606905
31
0
0
SPLINE
5
536
100
AcDbEntity
8
0
100
AcDbSpline
70
0
71
3
72
9
73
5
74
0
42
0.000000001
43
0.0000000001
44
0.0000000001
40
0
40
0
40
0
40
0
40
0.046448355431490132
40
0.082491979521256892
40
0.082491979521256892
40
0.082491979521256892
40
0.082491979521256892
10
-0.5734634062931665
20
-80.949639097606905
30
0
10
-0.40487289287642891
20
-80.943352494317637
30
0
10
-0.10545722894049092
20
-80.932187527442494
30
0
10
0.030983415559098226
20
-80.672486526274156
30
0
10
0.0905990937068335
20
-80.559014097606905
30
0
0
SPLINE
5
537
100
AcDbEntity
8
0
100
AcDbSpline
70
0
71
3
72
9
73
5
74
0
42
0.000000001
43
0.0000000001
44
0.0000000001
40
0
40
0
40
0
40
0
40
0.061941512608200765
40
0.14261955434671972
40
0.14261955434671972
40
0.14261955434671972
40
0.14261955434671972
10
0.0905990937068335
20
-80.559014097606905
30
0
10
0.12304239768412106
20
-80.355031400874552
30
0
10
0.19774269736913652
20
-79.885363805147179
30
0
10
0.23534409386364974
20
-79.41121712938569
30
0
10
0.2566147187068335
20
-79.142998472606905
30
0
0
SPLINE
5
538
100
AcDbEntity
8
0
100
AcDbSpline
70
0
71
3
72
9
73
5
74
0
42
0.000000001
43
0.0000000001
44
0.0000000001
40
0
40
0
40
0
40
0
40
0.056406523896712087
40
0.13901845903191049
40
0.13901845903191049
40
0.13901845903191049
40
0.13901845903191049
10
0.2566147187068335
20
-79.142998472606905
30
0
10
0.43198445946845965
20
-79.210868307999945
30
0
10
0.86419742770859731
20
-79.378139029173354
30
0
10
1.3039091154947524
20
-79.524671389788779
30
0
10
1.5652084687068335
20
-79.611748472606905
30
0
0
SPLINE
5
539
100
AcDbEntity
8
0
100
AcDbSpline
70
0
71
3
72
9
73
5
74
0
42
0.000000001
43
0.0000000001
44
0.0000000001
40
0
40
0
40
0
40
0
40
0.089286068506900587
40
0.16295830855189358
40
0.16295830855189358
40
0.16295830855189358
40
0.16295830855189358
10
1.5652084687068335
20
-79.611748472606905
30
0
10
1.5296708639083167
20
-79.907613535213059
30
0
10
1.4648102639872373
20
-80.447604498732431
30
0
10
1.3321943759631205
20
-80.974916938185828
30
0
10
1.2722397187068335
20
-81.213310972606905
30
0
0
SPLINE
5
540
100
AcDbEntity
8
0
100
AcDbSpline
70
0
71
3
72
9
73
5
74
0
42
0.000000001
43
0.0000000001
44
0.0000000001
40
0
40
0
40
0
40
0
40
0.087899101696263138
40
0.20458529548103277
40
0.20458529548103277
40
0.20458529548103277
40
0.20458529548103277
10
1.2722397187068335
20
-81.213310972606905
30
0
10
1.1242836586890581
20
-81.488226648431379
30
0
10
0.77991569959952933
20
-82.128093310155293
30
0
10
0.036241548570874471
20
-82.148778628285044
30
0
10
-0.3879165312931665
20
-82.160576597606905
30
0
0
LINE
5
541
100
AcDbEntity
8
0
100
AcDbLine
10
-0.38791653129316672
20
-82.160576597606905
30
0
11
-1.8234634062931665
21
-82.160576597606905
31
0
0
SPLINE
5
542
100
AcDbEntity
8
0
100
AcDbSpline
70
0
71
3
72
9
73
5
74
0
42
0.000000001
43
0.0000000001
44
0.0000000001
40
0
40
0
40
0
40
0
40
0.10141361768199021
40
0.21085317600443487
40
0.21085317600443487
40
0.21085317600443487
40
0.21085317600443487
10
-1.8234634062931665
20
-82.160576597606905
30
0
10
-2.1935956919325084
20
-82.094017709307565
30
0
10
-2.9631527765990162
20
-81.955632418357339
30
0
10
-3.0486294976661799
20
-81.17122488211109
30
0
10
-3.0929946562931665
20
-80.764092222606905
30
0
0
LINE
5
543
100
AcDbEntity
8
0
100
AcDbLine
10
-3.0929946562931661
20
-80.764092222606877
30
0
11
-3.0929946562931665
21
-76.623467222606905
31
0
0
SPLINE
5
544
100
AcDbEntity
8
0
100
AcDbSpline
70
0
71
3
72
9
73
5
74
0
42
0.000000001
43
0.0000000001
44
0.0000000001
40
0
40
0
40
0
40
0
40
0.034406508830220381
40
0.068541698894347913
40
0.068541698894347913
40
0.068541698894347913
40
0.068541698894347913
10
-3.0929946562931665
20
-76.623467222606905
30
0
10
-3.1778616489009481
20
-76.700635526997857
30
0
10
-3.3469264000529764
20
-76.854363611118572
30
0
10
-3.5229228785288469
20
-77.000104154242038
30
0
10
-3.6105727812931665
20
-77.072685972606905
30
0
0
SPLINE
5
545
100
AcDbEntity
8
0
100
AcDbSpline
70
0
71
3
72
9
73
5
74
0
42
0.000000001
43
0.0000000001
44
0.0000000001
40
0
40
0
40
0
40
0
40
0.062017966128462984
40
0.13936123832652153
40
0.13936123832652153
40
0.13936123832652153
40
0.13936123832652153
10
-3.6105727812931665
20
-77.072685972606905
30
0
10
-3.7106417222435129
20
-76.891563843630763
30
0
10
-3.9355077151072071
20
-76.484562360702938
30
0
10
-4.2101202913178764
20
-76.109155701547763
30
0
10
-4.3625259062931665
20
-75.900810972606905
30
0
0
SPLINE
5
546
100
AcDbEntity
8
0
100
AcDbSpline
70
0
71
3
72
9
73
5
74
0
42
0.000000001
43
0.0000000001
44
0.0000000001
40
0
40
0
40
0
40
0
40
0.20273787949313288
40
0.40537695139212032
40
0.40537695139212032
40
0.40537695139212032
40
0.40537695139212032
10
-4.3625259062931665
20
-75.900810972606905
30
0
10
-3.8409152903464427
20
-75.461433654275893
30
0
10
-2.7979482738476324
20
-74.582893155277006
30
0
10
-2.1352170168854556
20
-73.391095702930912
30
0
10
-1.8039321562931665
20
-72.795342222606905
30
0
0
LINE
5
547
100
AcDbEntity
8
0
100
AcDbLine
10
-1.8039321562931665
20
-72.795342222606905
30
0
11
-0.1730727812931665
21
-72.795342222606905
31
0
0
LINE
5
548
100
AcDbEntity
8
0
100
AcDbLine
10
-0.1730727812931665
20
-72.795342222606905
30
0
11
-0.3879165312931665
21
-73.137139097606905
31
0
0
SPLINE
5
549
100
AcDbEntity
8
0
100
AcDbSpline
70
0
71
3
72
9
73
5
74
0
42
0.000000001
43
0.0000000001
44
0.0000000001
40
0
40
0
40
0
40
0
40
0.17149241087556918
40
0.34510712471893856
40
0.34510712471893856
40
0.34510712471893856
40
0.34510712471893856
10
-0.3879165312931665
20
-73.137139097606905
30
0
10
-0.073911763130838359
20
-73.620720659239552
30
0
10
0.55798373670656431
20
-74.593868342277418
30
0
10
1.4879771665895181
20
-75.287959363532664
30
0
10
1.9558334687068335
20
-75.637139097606905
30
0
0
LINE
5
550
100
AcDbEntity
8
0
100
AcDbLine
10
1.9558334687068337
20
-75.637139097606905
30
0
11
1.3015365937068335
21
-76.945732847606905
31
0
0
SPLINE
5
551
100
AcDbEntity
8
0
100
AcDbSpline
70
0
71
3
72
9
73
5
74
0
42
0.000000001
43
0.0000000001
44
0.0000000001
40
0
40
0
40
0
40
0
40
0.19103173186061848
40
0.36815958309908603
40
0.36815958309908603
40
0.36815958309908603
40
0.36815958309908603
10
1.3015365937068335
20
-76.945732847606905
30
0
10
0.80020541656907529
20
-76.544721669477823
30
0
10
-0.1659685031872371
20
-75.771886147755197
30
0
10
-0.82351353343864453
20
-74.724863781171948
30
0
10
-1.1398696562931665
20
-74.221123472606905
30
0
0
SPLINE
5
552
100
AcDbEntity
8
0
100
AcDbSpline
70
0
71
3
72
9
73
5
74
0
42
0.000000001
43
0.0000000001
44
0.0000000001
40
0
40
0
40
0
40
0
40
0.14752640439353945
40
0.29096229406697904
40
0.29096229406697904
40
0.29096229406697904
40
0.29096229406697904
10
-1.1398696562931665
20
-74.221123472606905
30
0
10
-1.4108399661828663
20
-74.632966870909513
30
0
10
-1.9452673001483012
20
-75.445234345732601
30
0
10
-2.6224464283675641
20
-76.142846239615665
30
0
10
-2.9562759062931665
20
-76.486748472606905
30
0
0
LINE
5
553
100
AcDbEntity
8
0
100
AcDbLine
10
-2.9562759062931665
20
-76.486748472606919
30
0
11
-1.7941665312931665
21
-76.486748472606905
31
0
0
LINE
5
554
100
AcDbEntity
8
0
100
AcDbLine
10
-1.7941665312931665
20
-76.486748472606905
30
0
11
-1.7941665312931665
21
-77.980889097606905
31
0
0
SPLINE
5
555
100
AcDbEntity
8
0
100
AcDbSpline
70
0
71
3
72
9
73
5
74
0
42
0.000000001
43
0.0000000001
44
0.0000000001
40
0
40
0
40
0
40
0
40
0.1122770856026109
40
0.21987858669962199
40
0.21987858669962199
40
0.21987858669962199
40
0.21987858669962199
10
-1.7941665312931665
20
-77.980889097606905
30
0
10
-1.4739844888434872
20
-77.785766243475535
30
0
10
-0.84695382980403799
20
-77.403646088067745
30
0
10
-0.28958240929984669
20
-76.925712102521217
30
0
10
-0.0168227812931665
20
-76.691826597606905
30
0
0
LINE
5
556
100
AcDbEntity
8
0
100
AcDbLine
10
-0.016822781293166555
20
-76.691826597606905
30
0
11
0.9499740937068335
21
-77.600029722606905
31
0
0
LINE
5
557
100
AcDbEntity
8
0
100
AcDbLine
10
-7.7707290312931665
20
-80.822685972606905
30
0
11
-7.8000259062931665
21
-79.582451597606905
31
0
0
SPLINE
5
558
100
AcDbEntity
8
0
100
AcDbSpline
70
0
71
3
72
9
73
5
74
0
42
0.000000001
43
0.0000000001
44
0.0000000001
40
0
40
0
40
0
40
0
40
0.08719956728101684
40
0.20226467817027605
40
0.20226467817027605
40
0.20226467817027605
40
0.20226467817027605
10
-7.8000259062931665
20
-79.582451597606905
30
0
10
-7.5094875120550597
20
-79.57383010702182
30
0
10
-6.8355661080956036
20
-79.553832037387792
30
0
10
-6.1618230709901063
20
-79.528502045926786
30
0
10
-5.7785415312931665
20
-79.514092222606905
30
0
0
LINE
5
559
100
AcDbEntity
8
0
100
AcDbLine
10
-5.7785415312931674
20
-79.514092222606919
30
0
11
-5.7785415312931665
21
-78.605889097606905
31
0
0
LINE
5
560
100
AcDbEntity
8
0
100
AcDbLine
10
-5.7785415312931665
20
-78.605889097606905
30
0
11
-7.7316665312931665
21
-78.605889097606905
31
0
0
LINE
5
561
100
AcDbEntity
8
0
100
AcDbLine
10
-7.7316665312931665
20
-78.605889097606905
30
0
11
-7.7316665312931665
21
-77.385185972606905
31
0
0
SPLINE
5
562
100
AcDbEntity
8
0
100
AcDbSpline
70
0
71
3
72
9
73
5
74
0
42
0.000000001
43
0.0000000001
44
0.0000000001
40
0
40
0
40
0
40
0
40
0.10724111433944933
40
0.2340281620352192
40
0.2340281620352192
40
0.2340281620352192
40
0.2340281620352192
10
-7.7316665312931665
20
-77.385185972606905
30
0
10
-7.6176072375587101
20
-77.046249178800707
30
0
10
-7.3687000246849355
20
-76.306600440635805
30
0
10
-7.1797403887798943
20
-75.549343553848715
30
0
10
-7.0773696562931665
20
-75.139092222606905
30
0
0
LINE
5
563
100
AcDbEntity
8
0
100
AcDbLine
10
-7.0773696562931656
20
-75.139092222606905
30
0
11
-7.8000259062931665
21
-75.139092222606905
31
0
0
LINE
5
564
100
AcDbEntity
8
0
100
AcDbLine
10
-7.8000259062931665
20
-75.139092222606905
30
0
11
-7.8000259062931665
21
-73.976982847606905
31
0
0
LINE
5
565
100
AcDbEntity
8
0
100
AcDbLine
10
-7.8000259062931665
20
-73.976982847606905
30
0
11
-6.8136977812931665
21
-73.976982847606905
31
0
0
SPLINE
5
566
100
AcDbEntity
8
0
100
AcDbSpline
70
0
71
3
72
9
73
5
74
0
42
0.000000001
43
0.0000000001
44
0.0000000001
40
0
40
0
40
0
40
0
40
0.058318445031428856
40
0.1195096517917963
40
0.1195096517917963
40
0.1195096517917963
40
0.1195096517917963
10
-6.8136977812931665
20
-73.976982847606905
30
0
10
-6.774187832251668
20
-73.78664270372623
30
0
10
-6.6932216773804871
20
-73.396586276382862
30
0
10
-6.6178926638941649
20
-73.005401742829761
30
0
10
-6.5793227812931665
20
-72.805107847606905
30
0
0
LINE
5
567
100
AcDbEntity
8
0
100
AcDbLine
10
-6.5793227812931665
20
-72.805107847606919
30
0
11
-5.2609634062931665
21
-72.892998472606905
31
0
0
SPLINE
5
568
100
AcDbEntity
8
0
100
AcDbSpline
70
0
71
3
72
9
73
5
74
0
42
0.000000001
43
0.0000000001
44
0.0000000001
40
0
40
0
40
0
40
0
40
0.056855419267680715
40
0.11133380101035939
40
0.11133380101035939
40
0.11133380101035939
40
0.11133380101035939
10
-5.2609634062931665
20
-72.892998472606905
30
0
10
-5.3028096503246935
20
-73.077842031732573
30
0
10
-5.3847526113659683
20
-73.439801125426968
30
0
10
-5.4721190819561105
20
-73.800489236340141
30
0
10
-5.5148696562931665
20
-73.976982847606905
30
0
0
LINE
5
569
100
AcDbEntity
8
0
100
AcDbLine
10
-5.5148696562931665
20
-73.976982847606905
30
0
11
-3.6105727812931665
21
-73.976982847606905
31
0
0
LINE
5
570
100
AcDbEntity
8
0
100
AcDbLine
10
-3.6105727812931665
20
-73.976982847606905
30
0
11
-3.6105727812931665
21
-75.139092222606905
31
0
0
LINE
5
571
100
AcDbEntity
8
0
100
AcDbLine
10
-3.6105727812931665
20
-75.139092222606905
30
0
11
-5.8078384062931665
21
-75.139092222606905
31
0
0
SPLINE
5
572
100
AcDbEntity
8
0
100
AcDbSpline
70
0
71
3
72
9
73
5
74
0
42
0.000000001
43
0.0000000001
44
0.0000000001
40
0
40
0
40
0
40
0
40
0.12669957590912836
40
0.24014093005403758
40
0.24014093005403758
40
0.24014093005403758
40
0.24014093005403758
10
-5.8078384062931665
20
-75.139092222606905
30
0
10
-5.9179488450084321
20
-75.546875273658486
30
0
10
-6.1266474375017976
20
-76.319769740251118
30
0
10
-6.3677641992285583
20
-77.083158672941721
30
0
10
-6.4816665312931665
20
-77.443779722606905
30
0
0
LINE
5
573
100
AcDbEntity
8
0
100
AcDbLine
10
-6.4816665312931665
20
-77.443779722606905
30
0
11
-5.7785415312931665
21
-77.443779722606905
31
0
0
LINE
5
574
100
AcDbEntity
8
0
100
AcDbLine
10
-5.7785415312931665
20
-77.443779722606905
30
0
11
-5.7785415312931665
21
-75.744560972606905
31
0
0
LINE
5
575
100
AcDbEntity
8
0
100
AcDbLine
10
-5.7785415312931665
20
-75.744560972606905
30
0
11
-4.6066665312931665
21
-75.744560972606905
31
0
0
LINE
5
576
100
AcDbEntity
8
0
100
AcDbLine
10
-4.6066665312931665
20
-75.744560972606905
30
0
11
-4.6066665312931665
21
-77.443779722606905
31
0
0
LINE
5
577
100
AcDbEntity
8
0
100
AcDbLine
10
-4.6066665312931665
20
-77.443779722606905
30
0
11
-3.7179946562931665
21
-77.443779722606905
31
0
0
LINE
5
578
100
AcDbEntity
8
0
100
AcDbLine
10
-3.7179946562931665
20
-77.443779722606905
30
0
11
-3.7179946562931665
21
-78.605889097606905
31
0
0
LINE
5
579
100
AcDbEntity
8
0
100
AcDbLine
10
-3.7179946562931665
20
-78.605889097606905
30
0
11
-4.6066665312931665
21
-78.605889097606905
31
0
0
LINE
5
580
100
AcDbEntity
8
0
100
AcDbLine
10
-4.6066665312931665
20
-78.605889097606905
30
0
11
-4.6066665312931665
21
-79.465264097606905
31
0
0
SPLINE
5
581
100
AcDbEntity
8
0
100
AcDbSpline
70
0
71
3
72
9
73
5
74
0
42
0.000000001
43
0.0000000001
44
0.0000000001
40
0
40
0
40
0
40
0
40
0.049365330968624589
40
0.10168040025226036
40
0.10168040025226036
40
0.10168040025226036
40
0.10168040025226036
10
-4.6066665312931665
20
-79.465264097606905
30
0
10
-4.4422654330912659
20
-79.458212451228903
30
0
10
-4.1036397389233343
20
-79.443687799776484
30
0
10
-3.7651804902356489
20
-79.425693915264432
30
0
10
-3.5910415312931665
20
-79.416435972606905
30
0
0
SPLINE
5
582
100
AcDbEntity
8
0
100
AcDbSpline
70
0
71
3
72
9
73
5
74
0
42
0.000000001
43
0.0000000001
44
0.0000000001
40
0
40
0
40
0
40
0
40
0.060304711189764507
40
0.11621504650663916
40
0.11621504650663916
40
0.11621504650663916
40
0.11621504650663916
10
-3.5910415312931665
20
-79.416435972606905
30
0
10
-3.5935468998181208
20
-79.617445366500732
30
0
10
-3.5983750718448082
20
-80.004816694524067
30
0
10
-3.5934236361690353
20
-80.392184910610752
30
0
10
-3.5910415312931665
20
-80.578545347606905
30
0
0
SPLINE
5
583
100
AcDbEntity
8
0
100
AcDbSpline
70
0
71
3
72
9
73
5
74
0
42
0.000000001
43
0.0000000001
44
0.0000000001
40
0
40
0
40
0
40
0
40
0.052815692511679529
40
0.10173162917718029
40
0.10173162917718029
40
0.10173162917718029
40
0.10173162917718029
10
-3.5910415312931665
20
-80.578545347606905
30
0
10
-3.7668344580642765
20
-80.588108873650697
30
0
10
-4.1054402774293264
20
-80.606529783021472
30
0
10
-4.4439161307012753
20
-80.627200116613352
30
0
10
-4.6066665312931665
20
-80.637139097606905
30
0
0
LINE
5
584
100
AcDbEntity
8
0
100
AcDbLine
10
-4.6066665312931665
20
-80.637139097606905
30
0
11
-4.6066665312931665
21
-82.385185972606905
31
0
0
LINE
5
585
100
AcDbEntity
8
0
100
AcDbLine
10
-4.6066665312931665
20
-82.385185972606905
30
0
11
-5.7785415312931665
21
-82.385185972606905
31
0
0
LINE
5
586
100
AcDbEntity
8
0
100
AcDbLine
10
-5.7785415312931665
20
-82.385185972606905
30
0
11
-5.7785415312931665
21
-80.695732847606905
31
0
0
SPLINE
5
587
100
AcDbEntity
8
0
100
AcDbSpline
70
0
71
3
72
9
73
5
74
0
42
0.000000001
43
0.0000000001
44
0.0000000001
40
0
40
0
40
0
40
0
40
0.11496431418983846
40
0.19962339823293951
40
0.19962339823293951
40
0.19962339823293951
40
0.19962339823293951
10
-5.7785415312931665
20
-80.695732847606905
30
0
10
-6.1610620497947544
20
-80.718809773004693
30
0
10
-6.8252685588773998
20
-80.758880418414435
30
0
10
-7.4891716980630658
20
-80.803684732250659
30
0
10
-7.7707290312931665
20
-80.822685972606905
30
0
0
LINE
5
588
100
AcDbEntity
8
0
100
AcDbLine
10
14.105989718706834
20
-72.658623472606905
30
0
11
15.395052218706834
21
-73.000420347606905
31
0
0
SPLINE
5
589
100
AcDbEntity
8
0
100
AcDbSpline
70
0
71
3
72
9
73
5
74
0
42
0.000000001
43
0.0000000001
44
0.0000000001
40
0
40
0
40
0
40
0
40
0.1219482421875
40
0.24088914734641098
40
0.24088914734641098
40
0.24088914734641098
40
0.24088914734641098
10
15.395052218706834
20
-73.000420347606905
30
0
10
15.267439210232352
20
-73.386493675929614
30
0
10
15.01536022778615
20
-74.149119468680738
30
0
10
14.713848080427617
20
-74.893579538702056
30
0
10
14.564974093706834
20
-75.261162535106905
30
0
0
LINE
5
590
100
AcDbEntity
8
0
100
AcDbLine
10
14.564974093706834
20
-75.261162535106905
30
0
11
14.564974093706834
21
-82.346123472606905
31
0
0
LINE
5
591
100
AcDbEntity
8
0
100
AcDbLine
10
14.564974093706834
20
-82.346123472606905
30
0
11
13.324739718706834
21
-82.346123472606905
31
0
0
LINE
5
592
100
AcDbEntity
8
0
100
AcDbLine
10
13.324739718706834
20
-82.346123472606905
30
0
11
13.324739718706834
21
-77.824639097606905
31
0
0
SPLINE
5
593
100
AcDbEntity
8
0
100
AcDbSpline
70
0
71
3
72
9
73
5
74
0
42
0.000000001
43
0.0000000001
44
0.0000000001
40
0
40
0
40
0
40
0
40
0.0792220340326448
40
0.15779132733542089
40
0.15779132733542089
40
0.15779132733542089
40
0.15779132733542089
10
13.324739718706834
20
-77.824639097606905
30
0
10
13.193202436943764
20
-78.053676372758929
30
0
10
12.931211659542932
20
-78.509863797088812
30
0
10
12.646295825324012
20
-78.952094627854436
30
0
10
12.504427218706834
20
-79.172295347606905
30
0
0
SPLINE
5
594
100
AcDbEntity
8
0
100
AcDbSpline
70
0
71
3
72
9
73
5
74
0
42
0.000000001
43
0.0000000001
44
0.0000000001
40
0
40
0
40
0
40
0
40
0.085370359816894961
40
0.18544836379473212
40
0.18544836379473212
40
0.18544836379473212
40
0.18544836379473212
10
12.504427218706834
20
-79.172295347606905
30
0
10
12.459347559717557
20
-78.891304053976526
30
0
10
12.361421897720628
20
-78.280912159692789
30
0
10
12.244992965667725
20
-77.673770220871972
30
0
10
12.182161593706834
20
-77.346123472606905
30
0
0
SPLINE
5
595
100
AcDbEntity
8
0
100
AcDbSpline
70
0
71
3
72
9
73
5
74
0
42
0.000000001
43
0.0000000001
44
0.0000000001
40
0
40
0
40
0
40
0
40
0.24184282448632557
40
0.50812146523314716
40
0.50812146523314716
40
0.50812146523314716
40
0.50812146523314716
10
12.182161593706834
20
-77.346123472606905
30
0
10
12.572520145314961
20
-76.637747576345092
30
0
10
13.392679104468307
20
-75.14942143266515
30
0
10
13.860716791542966
20
-73.51508809607175
30
0
10
14.105989718706834
20
-72.658623472606905
30
0
0
LINE
5
596
100
AcDbEntity
8
0
100
AcDbLine
10
15.697786593706834
20
-80.490654722606905
30
0
11
16.342317843706834
21
-79.435967222606905
31
0
0
SPLINE
5
597
100
AcDbEntity
8
0
100
AcDbSpline
70
0
71
3
72
9
73
5
74
0
42
0.000000001
43
0.0000000001
44
0.0000000001
40
0
40
0
40
0
40
0
40
0.098839646825008898
40
0.21592213201864902
40
0.21592213201864902
40
0.21592213201864902
40
0.21592213201864902
10
16.342317843706834
20
-79.435967222606905
30
0
10
16.651634424239276
20
-79.549459232121777
30
0
10
17.327358161451013
20
-79.797390476806612
30
0
10
17.996228476643953
20
-80.063276494250957
30
0
10
18.358919406206834
20
-80.207451597606905
30
0
0
LINE
5
598
100
AcDbEntity
8
0
100
AcDbLine
10
18.358919406206834
20
-80.207451597606905
30
0
11
19.594270968706834
21
-78.986748472606905
31
0
0
LINE
5
599
100
AcDbEntity
8
0
100
AcDbLine
10
19.594270968706834
20
-78.986748472606905
30
0
11
15.893099093706834
21
-78.986748472606905
31
0
0
LINE
5
600
100
AcDbEntity
8
0
100
AcDbLine
10
15.893099093706834
20
-78.986748472606905
30
0
11
15.893099093706834
21
-77.922295347606905
31
0
0
SPLINE
5
601
100
AcDbEntity
8
0
100
AcDbSpline
70
0
71
3
72
9
73
5
74
0
42
0.000000001
43
0.0000000001
44
0.0000000001
40
0
40
0
40
0
40
0
40
0.047521739050788048
40
0.095890088294847187
40
0.095890088294847187
40
0.095890088294847187
40
0.095890088294847187
10
15.893099093706834
20
-77.922295347606905
30
0
10
15.945197782367364
20
-77.772698810193873
30
0
10
16.050323309241808
20
-77.47084064027699
30
0
10
16.150291086563403
20
-77.167235202382912
30
0
10
16.200716281206834
20
-77.014092222606905
30
0
0
LINE
5
602
100
AcDbEntity
8
0
100
AcDbLine
10
16.200716281206834
20
-77.014092222606905
30
0
11
14.994661593706834
21
-77.014092222606905
31
0
0
LINE
5
603
100
AcDbEntity
8
0
100
AcDbLine
10
14.994661593706834
20
-77.014092222606905
30
0
11
14.994661593706834
21
-75.900810972606905
31
0
0
LINE
5
604
100
AcDbEntity
8
0
100
AcDbLine
10
14.994661593706834
20
-75.900810972606905
30
0
11
16.542513156206834
21
-75.900810972606905
31
0
0
LINE
5
605
100
AcDbEntity
8
0
100
AcDbLine
10
16.542513156206834
20
-75.900810972606905
30
0
11
16.791536593706834
21
-75.031670347606905
31
0
0
LINE
5
606
100
AcDbEntity
8
0
100
AcDbLine
10
16.791536593706834
20
-75.031670347606905
30
0
11
15.463411593706834
21
-75.031670347606905
31
0
0
LINE
5
607
100
AcDbEntity
8
0
100
AcDbLine
10
15.463411593706834
20
-75.031670347606905
30
0
11
15.463411593706834
21
-73.937920347606905
31
0
0
LINE
5
608
100
AcDbEntity
8
0
100
AcDbLine
10
15.463411593706834
20
-73.937920347606905
30
0
11
17.079622531206834
21
-73.937920347606905
31
0
0
LINE
5
609
100
AcDbEntity
8
0
100
AcDbLine
10
17.079622531206834
20
-73.937920347606905
30
0
11
17.357942843706834
21
-72.766045347606905
31
0
0
LINE
5
610
100
AcDbEntity
8
0
100
AcDbLine
10
17.357942843706834
20
-72.766045347606905
30
0
11
18.813020968706834
21
-72.766045347606905
31
0
0
LINE
5
611
100
AcDbEntity
8
0
100
AcDbLine
10
18.813020968706834
20
-72.766045347606905
30
0
11
18.524935031206834
21
-73.937920347606905
31
0
0
LINE
5
612
100
AcDbEntity
8
0
100
AcDbLine
10
18.524935031206834
20
-73.937920347606905
30
0
11
21.557161593706834
21
-73.937920347606905
31
0
0
LINE
5
613
100
AcDbEntity
8
0
100
AcDbLine
10
21.557161593706834
20
-73.937920347606905
30
0
11
21.557161593706834
21
-75.031670347606905
31
0
0
LINE
5
614
100
AcDbEntity
8
0
100
AcDbLine
10
21.557161593706834
20
-75.031670347606905
30
0
11
18.236849093706834
21
-75.031670347606905
31
0
0
LINE
5
615
100
AcDbEntity
8
0
100
AcDbLine
10
18.236849093706834
20
-75.031670347606905
30
0
11
17.992708468706834
21
-75.900810972606905
31
0
0
LINE
5
616
100
AcDbEntity
8
0
100
AcDbLine
10
17.992708468706834
20
-75.900810972606905
30
0
11
21.908724093706834
21
-75.900810972606905
31
0
0
LINE
5
617
100
AcDbEntity
8
0
100
AcDbLine
10
21.908724093706834
20
-75.900810972606905
30
0
11
21.908724093706834
21
-77.014092222606905
31
0
0
LINE
5
618
100
AcDbEntity
8
0
100
AcDbLine
10
21.908724093706834
20
-77.014092222606905
30
0
11
17.655794406206834
21
-77.014092222606905
31
0
0
SPLINE
5
619
100
AcDbEntity
8
0
100
AcDbSpline
70
0
71
3
72
9
73
5
74
0
42
0.000000001
43
0.0000000001
44
0.0000000001
40
0
40
0
40
0
40
0
40
0.046905031121038998
40
0.092494166447718421
40
0.092494166447718421
40
0.092494166447718421
40
0.092494166447718421
10
17.655794406206834
20
-77.014092222606905
30
0
10
17.608747710765023
20
-77.163201863275916
30
0
10
17.515974189993216
20
-77.457237952654225
30
0
10
17.416659398654005
20
-77.749129191825915
30
0
10
17.367708468706834
20
-77.892998472606905
30
0
0
LINE
5
620
100
AcDbEntity
8
0
100
AcDbLine
10
17.367708468706834
20
-77.892998472606905
30
0
11
21.469270968706834
21
-77.892998472606905
31
0
0
LINE
5
621
100
AcDbEntity
8
0
100
AcDbLine
10
21.469270968706834
20
-77.892998472606905
30
0
11
21.469270968706834
21
-78.918389097606905
31
0
0
LINE
5
622
100
AcDbEntity
8
0
100
AcDbLine
10
21.469270968706834
20
-78.918389097606905
30
0
11
19.677278781206834
21
-80.749443785106905
31
0
0
LINE
5
623
100
AcDbEntity
8
0
100
AcDbLine
10
19.677278781206834
20
-80.749443785106905
30
0
11
20.893099093706834
21
-81.262139097606905
31
0
0
LINE
5
624
100
AcDbEntity
8
0
100
AcDbLine
10
20.893099093706834
20
-81.262139097606905
30
0
11
20.199739718706834
21
-82.414482847606905
31
0
0
SPLINE
5
625
100
AcDbEntity
8
0
100
AcDbSpline
70
0
71
3
72
9
73
5
74
0
42
0.000000001
43
0.0000000001
44
0.0000000001
40
0
40
0
40
0
40
0
40
0.21930868466945799
40
0.48965361426599607
40
0.48965361426599607
40
0.48965361426599607
40
0.48965361426599607
10
20.199739718706834
20
-82.414482847606905
30
0
10
19.535513600710587
20
-82.108886614400205
30
0
10
18.052486515591113
20
-81.426577565302267
30
0
10
16.535395020385508
20
-80.823579038133019
30
0
10
15.697786593706834
20
-80.490654722606905
30
0
0
LINE
5
626
100
AcDbEntity
8
0
100
AcDbLine
10
23.051302218706834
20
-73.566826597606905
30
0
11
27.953645968706834
21
-73.566826597606905
31
0
0
SPLINE
5
627
100
AcDbEntity
8
0
100
AcDbSpline
70
0
71
3
72
9
73
5
74
0
42
0.000000001
43
0.0000000001
44
0.0000000001
40
0
40
0
40
0
40
0
40
0.043002722055196625
40
0.087941179634813321
40
0.087941179634813321
40
0.087941179634813321
40
0.087941179634813321
10
27.953645968706834
20
-73.566826597606905
30
0
10
27.947508555771257
20
-73.423612185339778
30
0
10
27.934957458825167
20
-73.130736670638342
30
0
10
27.927936728169517
20
-72.837676043552989
30
0
10
27.924349093706834
20
-72.687920347606905
30
0
0
LINE
5
628
100
AcDbEntity
8
0
100
AcDbLine
10
27.924349093706834
20
-72.687920347606905
30
0
11
29.154817843706834
21
-72.687920347606905
31
0
0
SPLINE
5
629
100
AcDbEntity
8
0
100
AcDbSpline
70
0
71
3
72
9
73
5
74
0
42
0.000000001
43
0.0000000001
44
0.0000000001
40
0
40
0
40
0
40
0
40
0.044941939143967526
40
0.087960771207931346
40
0.087960771207931346
40
0.087960771207931346
40
0.087960771207931346
10
29.154817843706834
20
-72.687920347606905
30
0
10
29.158591061476926
20
-72.837687399288811
30
0
10
29.165976037544148
20
-73.13081283220076
30
0
10
29.181436370957464
20
-73.423622598793088
30
0
10
29.188997531206834
20
-73.566826597606905
30
0
0
LINE
5
630
100
AcDbEntity
8
0
100
AcDbLine
10
29.188997531206834
20
-73.566826597606905
30
0
11
29.887239718706834
21
-73.566826597606905
31
0
0
SPLINE
5
631
100
AcDbEntity
8
0
100
AcDbSpline
70
0
71
3
72
9
73
5
74
0
42
0.000000001
43
0.0000000001
44
0.0000000001
40
0
40
0
40
0
40
0
40
0.033318711093643018
40
0.063844100718898927
40
0.063844100718898927
40
0.063844100718898927
40
0.063844100718898927
10
29.887239718706834
20
-73.566826597606905
30
0
10
29.83514209097369
20
-73.468720772774446
30
0
10
29.735314514124681
20
-73.280733964277829
30
0
10
29.626680321291946
20
-73.097699244406584
30
0
10
29.574739718706834
20
-73.010185972606905
30
0
0
LINE
5
632
100
AcDbEntity
8
0
100
AcDbLine
10
29.57473971870683
20
-73.010185972606905
30
0
11
30.668489718706834
21
-72.707451597606905
31
0
0
SPLINE
5
633
100
AcDbEntity
8
0
100
AcDbSpline
70
0
71
3
72
9
73
5
74
0
42
0.000000001
43
0.0000000001
44
0.0000000001
40
0
40
0
40
0
40
0
40
0.054840554907778595
40
0.098603230128099281
40
0.098603230128099281
40
0.098603230128099281
40
0.098603230128099281
10
30.668489718706834
20
-72.707451597606905
30
0
10
30.759931063540392
20
-72.865748719466382
30
0
10
30.924342455493093
20
-73.150366691723832
30
0
10
31.081941573324187
20
-73.438808589651671
30
0
10
31.151888156206834
20
-73.566826597606905
30
0
0
LINE
5
634
100
AcDbEntity
8
0
100
AcDbLine
10
31.151888156206834
20
-73.566826597606905
30
0
11
31.791536593706834
21
-73.566826597606905
31
0
0
LINE
5
635
100
AcDbEntity
8
0
100
AcDbLine
10
31.791536593706834
20
-73.566826597606905
30
0
11
31.791536593706834
21
-74.680107847606905
31
0
0
LINE
5
636
100
AcDbEntity
8
0
100
AcDbLine
10
31.791536593706834
20
-74.680107847606905
30
0
11
29.272005343706834
21
-74.680107847606905
31
0
0
SPLINE
5
637
100
AcDbEntity
8
0
100
AcDbSpline
70
0
71
3
72
9
73
5
74
0
42
0.000000001
43
0.0000000001
44
0.0000000001
40
0
40
0
40
0
40
0
40
0.094890727517499593
40
0.17679990720499961
40
0.17679990720499961
40
0.17679990720499961
40
0.17679990720499961
10
29.272005343706834
20
-74.680107847606905
30
0
10
29.303663489957373
20
-74.995043328871006
30
0
10
29.362648782470234
20
-75.581829470359764
30
0
10
29.477558278037783
20
-76.160201988541615
30
0
10
29.530794406206834
20
-76.428154722606905
30
0
0
SPLINE
5
638
100
AcDbEntity
8
0
100
AcDbSpline
70
0
71
3
72
9
73
5
74
0
42
0.000000001
43
0.0000000001
44
0.0000000001
40
0
40
0
40
0
40
0
40
0.07765178414289034
40
0.15818165349189939
40
0.15818165349189939
40
0.15818165349189939
40
0.15818165349189939
10
29.530794406206834
20
-76.428154722606905
30
0
10
29.670370226802902
20
-76.209917135909137
30
0
10
29.954695105272489
20
-75.76535320606547
30
0
10
30.188256230757773
20
-75.292122249614479
30
0
10
30.307161593706834
20
-75.051201597606905
30
0
0
LINE
5
639
100
AcDbEntity
8
0
100
AcDbLine
10
30.30716159370683
20
-75.051201597606905
30
0
11
31.313020968706834
21
-75.637139097606905
31
0
0
SPLINE
5
640
100
AcDbEntity
8
0
100
AcDbSpline
70
0
71
3
72
9
73
5
74
0
42
0.000000001
43
0.0000000001
44
0.0000000001
40
0
40
0
40
0
40
0
40
0.12820951419138155
40
0.24740878354564586
40
0.24740878354564586
40
0.24740878354564586
40
0.24740878354564586
10
31.313020968706834
20
-75.637139097606905
30
0
10
31.104245994887989
20
-76.01064614111651
30
0
10
30.701368231618488
20
-76.731411084835926
30
0
10
30.207964767938236
20
-77.393396125091158
30
0
10
29.970247531206834
20
-77.712334410106905
30
0
0
SPLINE
5
641
100
AcDbEntity
8
0
100
AcDbSpline
70
0
71
3
72
9
73
5
74
0
42
0.000000001
43
0.0000000001
44
0.0000000001
40
0
40
0
40
0
40
0
40
0.040393654803742761
40
0.065560870734506504
40
0.065560870734506504
40
0.065560870734506504
40
0.065560870734506504
10
29.970247531206834
20
-77.712334410106905
30
0
10
30.032558583327482
20
-77.839330932811194
30
0
10
30.133692458270502
20
-78.045452479603611
30
0
10
30.343723362749635
20
-78.125819436910149
30
0
10
30.424349093706834
20
-78.156670347606905
30
0
0
SPLINE
5
642
100
AcDbEntity
8
0
100
AcDbSpline
70
0
71
3
72
9
73
5
74
0
42
0.000000001
43
0.0000000001
44
0.0000000001
40
0
40
0
40
0
40
0
40
0.018756074716066096
40
0.047442922806815439
40
0.047442922806815439
40
0.047442922806815439
40
0.047442922806815439
10
30.424349093706834
20
-78.156670347606905
30
0
10
30.485577930043746
20
-78.133106201578485
30
0
10
30.640454416721155
20
-78.073501408040457
30
0
10
30.682268752986488
20
-77.907764044424667
30
0
10
30.707552218706834
20
-77.807549253856905
30
0
0
SPLINE
5
643
100
AcDbEntity
8
0
100
AcDbSpline
70
0
71
3
72
9
73
5
74
0
42
0.000000001
43
0.0000000001
44
0.0000000001
40
0
40
0
40
0
40
0
40
0.041153494407379886
40
0.092401840628021231
40
0.092401840628021231
40
0.092401840628021231
40
0.092401840628021231
10
30.707552218706834
20
-77.807549253856905
30
0
10
30.740950087228882
20
-77.674483080171129
30
0
10
30.815938239970933
20
-77.375709924915355
30
0
10
30.878134666967618
20
-77.074003945818035
30
0
10
30.912630343706834
20
-76.906670347606905
30
0
0
SPLINE
5
644
100
AcDbEntity
8
0
100
AcDbSpline
70
0
71
3
72
9
73
5
74
0
42
0.000000001
43
0.0000000001
44
0.0000000001
40
0
40
0
40
0
40
0
40
0.061230157246017831
40
0.11889904625809865
40
0.11889904625809865
40
0.11889904625809865
40
0.11889904625809865
10
30.912630343706834
20
-76.906670347606905
30
0
10
31.088108185461209
20
-77.011316854808726
30
0
10
31.428857727230209
20
-77.214523419354123
30
0
10
31.791451276274827
20
-77.375478347328681
30
0
10
31.967317843706834
20
-77.453545347606905
30
0
0
SPLINE
5
645
100
AcDbEntity
8
0
100
AcDbSpline
70
0
71
3
72
9
73
5
74
0
42
0.000000001
43
0.0000000001
44
0.0000000001
40
0
40
0
40
0
40
0
40
0.095838198417376577
40
0.15713964996725396
40
0.15713964996725396
40
0.15713964996725396
40
0.15713964996725396
10
31.967317843706834
20
-77.453545347606905
30
0
10
31.894221270300982
20
-77.765708213884764
30
0
10
31.774369581219993
20
-78.277541327921924
30
0
10
31.55489124658958
20
-78.754353470871138
30
0
10
31.469270968706834
20
-78.940361753856905
30
0
0
SPLINE
5
646
100
AcDbEntity
8
0
100
AcDbSpline
70
0
71
3
72
9
73
5
74
0
42
0.000000001
43
0.0000000001
44
0.0000000001
40
0
40
0
40
0
40
0
40
0.042111117480856837
40
0.082444827901623094
40
0.082444827901623094
40
0.082444827901623094
40
0.082444827901623094
10
31.469270968706834
20
-78.940361753856905
30
0
10
31.385909456535526
20
-79.056961120943058
30
0
10
31.222704917313628
20
-79.285238481600246
30
0
10
30.965310711183921
20
-79.396287963106829
30
0
10
30.839388156206834
20
-79.450615660106905
30
0
0
SPLINE
5
647
100
AcDbEntity
8
0
100
AcDbSpline
70
0
71
3
72
9
73
5
74
0
42
0.000000001
43
0.0000000001
44
0.0000000001
40
0
40
0
40
0
40
0
40
0.095985618477686899
40
0.19333636743017055
40
0.19333636743017055
40
0.19333636743017055
40
0.19333636743017055
10
30.839388156206834
20
-79.450615660106905
30
0
10
31.030610214958049
20
-79.707327791270032
30
0
10
31.415773938418077
20
-80.224403075062426
30
0
10
31.756625966904984
20
-80.771709762541064
30
0
10
31.928255343706834
20
-81.047295347606905
30
0
0
LINE
5
648
100
AcDbEntity
8
0
100
AcDbLine
10
31.928255343706837
20
-81.047295347606905
30
0
11
30.834505343706834
21
-81.711357847606905
31
0
0
SPLINE
5
649
100
AcDbEntity
8
0
100
AcDbSpline
70
0
71
3
72
9
73
5
74
0
42
0.000000001
43
0.0000000001
44
0.0000000001
40
0
40
0
40
0
40
0
40
0.10992429946145241
40
0.21529268930236833
40
0.21529268930236833
40
0.21529268930236833
40
0.21529268930236833
10
30.834505343706834
20
-81.711357847606905
30
0
10
30.655588421671915
20
-81.391409692198835
30
0
10
30.305169947364451
20
-80.764773915099454
30
0
10
29.906550503896643
20
-80.167659598021487
30
0
10
29.711458468706834
20
-79.875420347606905
30
0
0
LINE
5
650
100
AcDbEntity
8
0
100
AcDbLine
10
29.711458468706834
20
-79.875420347606919
30
0
11
30.365755343706834
21
-79.504326597606905
31
0
0
SPLINE
5
651
100
AcDbEntity
8
0
100
AcDbSpline
70
0
71
3
72
9
73
5
74
0
42
0.000000001
43
0.0000000001
44
0.0000000001
40
0
40
0
40
0
40
0
40
0.072391400555993621
40
0.15499873599033226
40
0.15499873599033226
40
0.15499873599033226
40
0.15499873599033226
10
30.365755343706834
20
-79.504326597606905
30
0
10
30.121803614245025
20
-79.455039488292996
30
0
10
29.59947348361041
20
-79.349509831654203
30
0
10
29.264815878367671
20
-78.931309875059654
30
0
10
29.086458468706834
20
-78.708428160106905
30
0
0
SPLINE
5
652
100
AcDbEntity
8
0
100
AcDbSpline
70
0
71
3
72
9
73
5
74
0
42
0.000000001
43
0.0000000001
44
0.0000000001
40
0
40
0
40
0
40
0
40
0.046726149416400152
40
0.092411279848700234
40
0.092411279848700234
40
0.092411279848700234
40
0.092411279848700234
10
29.086458468706834
20
-78.708428160106905
30
0
10
28.974024249725147
20
-78.816332256642625
30
0
10
28.751660750813759
20
-79.029736437948529
30
0
10
28.511718658398053
20
-79.223158264139386
30
0
10
28.393099093706834
20
-79.318779722606905
30
0
0
SPLINE
5
653
100
AcDbEntity
8
0
100
AcDbSpline
70
0
71
3
72
9
73
5
74
0
42
0.000000001
43
0.0000000001
44
0.0000000001
40
0
40
0
40
0
40
0
40
0.048795307575205914
40
0.091059321769199605
40
0.091059321769199605
40
0.091059321769199605
40
0.091059321769199605
10
28.393099093706834
20
-79.318779722606905
30
0
10
28.290224578169404
20
-79.19273988575091
30
0
10
28.098245388413599
20
-78.957530751300439
30
0
10
27.892766400693709
20
-78.734035574683517
30
0
10
27.797395968706834
20
-78.630303160106905
30
0
0
LINE
5
654
100
AcDbEntity
8
0
100
AcDbLine
10
27.797395968706834
20
-78.630303160106905
30
0
11
27.797395968706834
21
-78.820732847606905
31
0
0
LINE
5
655
100
AcDbEntity
8
0
100
AcDbLine
10
27.797395968706834
20
-78.820732847606905
30
0
11
27.235872531206834
21
-78.820732847606905
31
0
0
SPLINE
5
656
100
AcDbEntity
8
0
100
AcDbSpline
70
0
71
3
72
9
73
5
74
0
42
0.000000001
43
0.0000000001
44
0.0000000001
40
0
40
0
40
0
40
0
40
0.078288574637489963
40
0.15588046374961995
40
0.15588046374961995
40
0.15588046374961995
40
0.15588046374961995
10
27.235872531206834
20
-78.820732847606905
30
0
10
27.403363180225682
20
-79.02087634871728
30
0
10
27.736853988605791
20
-79.419382285426678
30
0
10
28.057641129481652
20
-79.828183352924071
30
0
10
28.217317843706834
20
-80.031670347606905
30
0
0
LINE
5
657
100
AcDbEntity
8
0
100
AcDbLine
10
28.217317843706834
20
-80.031670347606905
30
0
11
27.240755343706834
21
-80.715264097606905
31
0
0
SPLINE
5
658
100
AcDbEntity
8
0
100
AcDbSpline
70
0
71
3
72
9
73
5
74
0
42
0.000000001
43
0.0000000001
44
0.0000000001
40
0
40
0
40
0
40
0
40
0.083164202401978374
40
0.18170632693878516
40
0.18170632693878516
40
0.18170632693878516
40
0.18170632693878516
10
27.240755343706834
20
-80.715264097606905
30
0
10
27.085412481805562
20
-80.485548853231279
30
0
10
26.746002254364171
20
-79.98364163724446
30
0
10
26.370290716152969
20
-79.508238662948415
30
0
10
26.166536593706834
20
-79.250420347606905
30
0
0
LINE
5
659
100
AcDbEntity
8
0
100
AcDbLine
10
26.166536593706837
20
-79.250420347606905
30
0
11
26.835481906206834
21
-78.820732847606905
31
0
0
LINE
5
660
100
AcDbEntity
8
0
100
AcDbLine
10
26.835481906206834
20
-78.820732847606905
30
0
11
24.584505343706834
21
-78.820732847606905
31
0
0
LINE
5
661
100
AcDbEntity
8
0
100
AcDbLine
10
24.584505343706834
20
-78.820732847606905
30
0
11
24.584505343706834
21
-76.408623472606905
31
0
0
LINE
5
662
100
AcDbEntity
8
0
100
AcDbLine
10
24.584505343706834
20
-76.408623472606905
30
0
11
27.797395968706834
21
-76.408623472606905
31
0
0
LINE
5
663
100
AcDbEntity
8
0
100
AcDbLine
10
27.797395968706834
20
-76.408623472606905
30
0
11
27.797395968706834
21
-78.317803160106905
31
0
0
SPLINE
5
664
100
AcDbEntity
8
0
100
AcDbSpline
70
0
71
3
72
9
73
5
74
0
42
0.000000001
43
0.0000000001
44
0.0000000001
40
0
40
0
40
0
40
0
40
0.050500091411016843
40
0.10134952003629875
40
0.10134952003629875
40
0.10134952003629875
40
0.10134952003629875
10
27.797395968706834
20
-78.317803160106905
30
0
10
27.92780762601187
20
-78.211189550627154
30
0
10
28.189533070574537
20
-77.997224826045425
30
0
10
28.429135128055982
20
-77.758743760393983
30
0
10
28.549349093706834
20
-77.639092222606905
30
0
0
SPLINE
5
665
100
AcDbEntity
8
0
100
AcDbSpline
70
0
71
3
72
9
73
5
74
0
42
0.000000001
43
0.0000000001
44
0.0000000001
40
0
40
0
40
0
40
0
40
0.12914323696811247
40
0.30111427115179579
40
0.30111427115179579
40
0.30111427115179579
40
0.30111427115179579
10
28.549349093706834
20
-77.639092222606905
30
0
10
28.43325795054789
20
-77.223692043932175
30
0
10
28.162576335465612
20
-76.255132443177757
30
0
10
28.073104243960859
20
-75.252644355315567
30
0
10
28.022005343706834
20
-74.680107847606905
30
0
0
LINE
5
666
100
AcDbEntity
8
0
100
AcDbLine
10
28.022005343706834
20
-74.680107847606905
30
0
11
24.272005343706834
21
-74.680107847606905
31
0
0
LINE
5
667
100
AcDbEntity
8
0
100
AcDbLine
10
24.272005343706834
20
-74.680107847606905
30
0
11
24.272005343706834
21
-75.910576597606905
31
0
0
SPLINE
5
668
100
AcDbEntity
8
0
100
AcDbSpline
70
0
71
3
72
9
73
5
74
0
42
0.000000001
43
0.0000000001
44
0.0000000001
40
0
40
0
40
0
40
0
40
0.18646502953409522
40
0.34120830268384561
40
0.34120830268384561
40
0.34120830268384561
40
0.34120830268384561
10
24.272005343706834
20
-75.910576597606905
30
0
10
24.255626782017291
20
-76.538482175376345
30
0
10
24.225656008149098
20
-77.687472937728643
30
0
10
23.783880738368389
20
-78.745964084165834
30
0
10
23.583528781206834
20
-79.226006285106905
30
0
0
LINE
5
669
100
AcDbEntity
8
0
100
AcDbLine
10
23.583528781206834
20
-79.226006285106905
30
0
11
24.447786593706834
21
-79.543389097606905
31
0
0
SPLINE
5
670
100
AcDbEntity
8
0
100
AcDbSpline
70
0
71
3
72
9
73
5
74
0
42
0.000000001
43
0.0000000001
44
0.0000000001
40
0
40
0
40
0
40
0
40
0.12665817035656449
40
0.26054008990323163
40
0.26054008990323163
40
0.26054008990323163
40
0.26054008990323163
10
24.447786593706834
20
-79.543389097606905
30
0
10
24.285582039497502
20
-79.933295273172007
30
0
10
23.951921849890763
20
-80.735345308709185
30
0
10
23.569883319695109
20
-81.515528615885572
30
0
10
23.373567843706834
20
-81.916435972606905
30
0
0
LINE
5
671
100
AcDbEntity
8
0
100
AcDbLine
10
23.37356784370683
20
-81.916435972606905
30
0
11
22.240755343706834
21
-81.379326597606905
31
0
0
SPLINE
5
672
100
AcDbEntity
8
0
100
AcDbSpline
70
0
71
3
72
9
73
5
74
0
42
0.000000001
43
0.0000000001
44
0.0000000001
40
0
40
0
40
0
40
0
40
0.1040560452862202
40
0.19452192479628622
40
0.19452192479628622
40
0.19452192479628622
40
0.19452192479628622
10
22.240755343706834
20
-81.379326597606905
30
0
10
22.397336962426742
20
-81.069648671740268
30
0
10
22.690049968935249
20
-80.490738085230788
30
0
10
22.936627127328375
20
-79.890772933249266
30
0
10
23.051302218706834
20
-79.611748472606905
30
0
0
SPLINE
5
673
100
AcDbEntity
8
0
100
AcDbSpline
70
0
71
3
72
9
73
5
74
0
42
0.000000001
43
0.0000000001
44
0.0000000001
40
0
40
0
40
0
40
0
40
0.061147357806860744
40
0.11563503858208007
40
0.11563503858208007
40
0.11563503858208007
40
0.11563503858208007
10
23.051302218706834
20
-79.611748472606905
30
0
10
22.904774410688418
20
-79.469841382110474
30
0
10
22.627677421688915
20
-79.201482576870575
30
0
10
22.324853435849398
20
-78.962594646345522
30
0
10
22.182161593706834
20
-78.850029722606905
30
0
0
SPLINE
5
674
100
AcDbEntity
8
0
100
AcDbSpline
70
0
71
3
72
9
73
5
74
0
42
0.000000001
43
0.0000000001
44
0.0000000001
40
0
40
0
40
0
40
0
40
0.14227618291936545
40
0.32375742310774891
40
0.32375742310774891
40
0.32375742310774891
40
0.32375742310774891
10
22.182161593706834
20
-78.850029722606905
30
0
10
22.434713590351016
20
-78.43931121987778
30
0
10
23.009409804126861
20
-77.50469826261552
30
0
10
23.036254503825198
20
-76.401831875958365
30
0
10
23.051302218706834
20
-75.783623472606905
30
0
0
LINE
5
675
100
AcDbEntity
8
0
100
AcDbLine
10
23.051302218706834
20
-75.783623472606905
30
0
11
23.051302218706834
21
-73.566826597606905
31
0
0
LWPOLYLINE
5
676
100
AcDbEntity
8
0
100
AcDbPolyline
90
4
70
1
43
0.0
10
26.723177218706834
20
-77.287529722606905
10
26.723177218706834
20
-77.941826597606905
10
25.658724093706834
20
-77.941826597606905
10
25.658724093706834
20
-77.287529722606905
0
LWPOLYLINE
5
677
100
AcDbEntity
8
0
100
AcDbPolyline
90
4
70
1
43
0.0
10
24.555208468706834
20
-75.978935972606905
10
27.816927218706834
20
-75.978935972606905
10
27.816927218706834
20
-75.109795347606905
10
24.555208468706834
20
-75.109795347606905
0
SPLINE
5
678
100
AcDbEntity
8
0
100
AcDbSpline
70
0
71
3
72
9
73
5
74
0
42
0.000000001
43
0.0000000001
44
0.0000000001
40
0
40
0
40
0
40
0
40
0.071044502388151604
40
0.13990774031906855
40
0.13990774031906855
40
0.13990774031906855
40
0.13990774031906855
10
28.695833468706834
20
-79.777764097606905
30
0
10
28.900024141686323
20
-79.898363311725433
30
0
10
29.302136264236069
20
-80.135859007583704
30
0
10
29.733509542658748
20
-80.314725286497662
30
0
10
29.945833468706834
20
-80.402764097606905
30
0
0
SPLINE
5
679
100
AcDbEntity
8
0
100
AcDbSpline
70
0
71
3
72
9
73
5
74
0
42
0.000000001
43
0.0000000001
44
0.0000000001
40
0
40
0
40
0
40
0
40
0.10819811826614741
40
0.17321133306071965
40
0.17321133306071965
40
0.17321133306071965
40
0.17321133306071965
10
29.945833468706834
20
-80.402764097606905
30
0
10
29.837529264024646
20
-80.753494564151623
30
0
10
29.664148100195732
20
-81.314969131627777
30
0
10
29.270741108587551
20
-81.745190774678804
30
0
10
29.123079562456834
20
-81.906670347606905
30
0
0
SPLINE
5
680
100
AcDbEntity
8
0
100
AcDbSpline
70
0
71
3
72
9
73
5
74
0
42
0.000000001
43
0.0000000001
44
0.0000000001
40
0
40
0
40
0
40
0
40
0.050652009387606847
40
0.10928519644342781
40
0.10928519644342781
40
0.10928519644342781
40
0.10928519644342781
10
29.123079562456834
20
-81.906670347606905
30
0
10
28.969266638175561
20
-81.980621167336835
30
0
10
28.637404667666463
20
-82.140175150664447
30
0
10
28.268666930396805
20
-82.153452887683912
30
0
10
28.070833468706834
20
-82.160576597606905
30
0
0
LINE
5
681
100
AcDbEntity
8
0
100
AcDbLine
10
28.070833468706834
20
-82.160576597606905
30
0
11
26.010286593706834
21
-82.160576597606905
31
0
0
SPLINE
5
682
100
AcDbEntity
8
0
100
AcDbSpline
70
0
71
3
72
9
73
5
74
0
42
0.000000001
43
0.0000000001
44
0.0000000001
40
0
40
0
40
0
40
0
40
0.1133835429345023
40
0.21257947421570639
40
0.21257947421570639
40
0.21257947421570639
40
0.21257947421570639
10
26.010286593706834
20
-82.160576597606905
30
0
10
25.586467540541822
20
-82.124462231804628
30
0
10
24.791861646664781
20
-82.056752468154741
30
0
10
24.630503158295262
20
-81.288566405876054
30
0
10
24.555208468706834
20
-80.930107847606905
30
0
0
LINE
5
683
100
AcDbEntity
8
0
100
AcDbLine
10
24.555208468706834
20
-80.930107847606919
30
0
11
24.555208468706834
21
-79.357842222606905
31
0
0
LINE
5
684
100
AcDbEntity
8
0
100
AcDbLine
10
24.555208468706834
20
-79.357842222606905
30
0
11
25.844270968706834
21
-79.357842222606905
31
0
0
LINE
5
685
100
AcDbEntity
8
0
100
AcDbLine
10
25.844270968706834
20
-79.357842222606905
30
0
11
25.844270968706834
21
-80.598076597606905
31
0
0
SPLINE
5
686
100
AcDbEntity
8
0
100
AcDbSpline
70
0
71
3
72
9
73
5
74
0
42
0.000000001
43
0.0000000001
44
0.0000000001
40
0
40
0
40
0
40
0
40
0.036950020206017446
40
0.078835615752921723
40
0.078835615752921723
40
0.078835615752921723
40
0.078835615752921723
10
25.844270968706834
20
-80.598076597606905
30
0
10
25.871759604233112
20
-80.731805957189778
30
0
10
25.930408652213039
20
-81.017127490119321
30
0
10
26.224910592702606
20
-81.043205597248715
30
0
10
26.381380343706834
20
-81.057060972606905
30
0
0
LINE
5
687
100
AcDbEntity
8
0
100
AcDbLine
10
26.381380343706837
20
-81.057060972606877
30
0
11
27.670442843706834
21
-81.057060972606905
31
0
0
SPLINE
5
688
100
AcDbEntity
8
0
100
AcDbSpline
70
0
71
3
72
9
73
5
74
0
42
0.000000001
43
0.0000000001
44
0.0000000001
40
0
40
0
40
0
40
0
40
0.043197370425302126
40
0.075647415986509564
40
0.075647415986509564
40
0.075647415986509564
40
0.075647415986509564
10
27.670442843706834
20
-81.057060972606905
30
0
10
27.818627411750271
20
-81.054400865887004
30
0
10
28.078128847860768
20
-81.049742475859375
30
0
10
28.288296306379177
20
-80.901097715114702
30
0
10
28.378450656206834
20
-80.837334410106905
30
0
0
SPLINE
5
689
100
AcDbEntity
8
0
100
AcDbSpline
70
0
71
3
72
9
73
5
74
0
42
0.000000001
43
0.0000000001
44
0.0000000001
40
0
40
0
40
0
40
0
40
0.041656214674686415
40
0.11146527969605971
40
0.11146527969605971
40
0.11146527969605971
40
0.11146527969605971
10
28.378450656206834
20
-80.837334410106905
30
0
10
28.445371697684287
20
-80.714526291988278
30
0
10
28.624441559506568
20
-80.385911670089882
30
0
10
28.668340320467188
20
-80.011962784112882
30
0
10
28.695833468706834
20
-79.777764097606905
30
0
0
LWPOLYLINE
5
690
100
AcDbEntity
8
0
100
AcDbPolyline
90
4
70
1
43
0.0
10
36.68411471870683
20
-73.107842222606905
10
32.85598971870683
20
-73.107842222606905
10
32.85598971870683
20
-75.861748472606905
10
36.68411471870683
20
-75.861748472606905
0
LWPOLYLINE
5
691
100
AcDbEntity
8
0
100
AcDbPolyline
90
4
70
1
43
0.0
10
35.49270846870683
20
-74.103935972606905
10
35.49270846870683
20
-74.865654722606905
10
34.04739596870683
20
-74.865654722606905
10
34.04739596870683
20
-74.103935972606905
0
LWPOLYLINE
5
692
100
AcDbEntity
8
0
100
AcDbPolyline
90
4
70
1
43
0.0
10
41.264192843706837
20
-73.107842222606905
10
37.44583346870683
20
-73.107842222606905
10
37.445833468706837
20
-75.861748472606905
10
41.264192843706837
20
-75.861748472606905
0
LWPOLYLINE
5
693
100
AcDbEntity
8
0
100
AcDbPolyline
90
4
70
1
43
0.0
10
40.072786593706837
20
-74.103935972606905
10
40.072786593706837
20
-74.865654722606905
10
38.64700534370683
20
-74.865654722606905
10
38.647005343706837
20
-74.103935972606905
0
LINE
5
694
100
AcDbEntity
8
0
100
AcDbLine
10
37.43606784370683
20
-82.258232847606905
30
0
11
37.43606784370683
21
-79.094170347606905
31
0
0
LINE
5
695
100
AcDbEntity
8
0
100
AcDbLine
10
37.43606784370683
20
-79.094170347606905
30
0
11
39.46731784370683
21
-79.094170347606905
31
0
0
SPLINE
5
696
100
AcDbEntity
8
0
100
AcDbSpline
70
0
71
3
72
9
73
5
74
0
42
0.000000001
43
0.0000000001
44
0.0000000001
40
0
40
0
40
0
40
0
40
0.14908118972530818
40
0.27148819609456171
40
0.27148819609456171
40
0.27148819609456171
40
0.27148819609456171
10
39.46731784370683
20
-79.094170347606905
30
0
10
38.978056132021258
20
-78.971863260369915
30
0
10
38.087073307371156
20
-78.749132743228671
30
0
10
37.375871135041777
20
-78.172512760311449
30
0
10
37.05520846870683
20
-77.912529722606905
30
0
0
SPLINE
5
697
100
AcDbEntity
8
0
100
AcDbSpline
70
0
71
3
72
9
73
5
74
0
42
0.000000001
43
0.0000000001
44
0.0000000001
40
0
40
0
40
0
40
0
40
0.12128636208198688
40
0.29049699563458253
40
0.29049699563458253
40
0.29049699563458253
40
0.29049699563458253
10
37.05520846870683
20
-77.912529722606905
30
0
10
36.737239457132198
20
-78.170859511534672
30
0
10
35.975661312798955
20
-78.789593772157502
30
0
10
35.007086006030455
20
-78.982060841423163
30
0
10
34.44290378120683
20
-79.094170347606905
30
0
0
LINE
5
698
100
AcDbEntity
8
0
100
AcDbLine
10
34.44290378120683
20
-79.094170347606919
30
0
11
36.67434909370683
21
-79.094170347606905
31
0
0
LINE
5
699
100
AcDbEntity
8
0
100
AcDbLine
10
36.67434909370683
20
-79.094170347606905
30
0
11
36.67434909370683
21
-82.277764097606905
31
0
0
LINE
5
700
100
AcDbEntity
8
0
100
AcDbLine
10
36.67434909370683
20
-82.277764097606905
30
0
11
35.54153659370683
21
-82.277764097606905
31
0
0
LINE
5
701
100
AcDbEntity
8
0
100
AcDbLine
10
35.54153659370683
20
-82.277764097606905
30
0
11
35.54153659370683
21
-81.906670347606905
31
0
0
LINE
5
702
100
AcDbEntity
8
0
100
AcDbLine
10
35.54153659370683
20
-81.906670347606905
30
0
11
33.98880221870683
21
-81.906670347606905
31
0
0
LINE
5
703
100
AcDbEntity
8
0
100
AcDbLine
10
33.98880221870683
20
-81.906670347606905
30
0
11
33.98880221870683
21
-82.277764097606905
31
0
0
LINE
5
704
100
AcDbEntity
8
0
100
AcDbLine
10
33.98880221870683
20
-82.277764097606905
30
0
11
32.85598971870683
21
-82.277764097606905
31
0
0
LINE
5
705
100
AcDbEntity
8
0
100
AcDbLine
10
32.85598971870683
20
-82.277764097606905
30
0
11
32.85598971870683
21
-79.299248472606905
31
0
0
SPLINE
5
706
100
AcDbEntity
8
0
100
AcDbSpline
70
0
71
3
72
9
73
5
74
0
42
0.000000001
43
0.0000000001
44
0.0000000001
40
0
40
0
40
0
40
0
40
0.02130887570705986
40
0.04307165373251548
40
0.04307165373251548
40
0.04307165373251548
40
0.04307165373251548
10
32.85598971870683
20
-79.299248472606905
30
0
10
32.785217873881678
20
-79.305368693249378
30
0
10
32.642166666665226
20
-79.317739501916321
30
0
10
32.498760786432747
20
-79.324918181998058
30
0
10
32.42630221870683
20
-79.328545347606905
30
0
0
SPLINE
5
707
100
AcDbEntity
8
0
100
AcDbSpline
70
0
71
3
72
9
73
5
74
0
42
0.000000001
43
0.0000000001
44
0.0000000001
40
0
40
0
40
0
40
0
40
0.049006631713828429
40
0.10176643189972297
40
0.10176643189972297
40
0.10176643189972297
40
0.10176643189972297
10
32.42630221870683
20
-79.328545347606905
30
0
10
32.402262906989492
20
-79.166836695531032
30
0
10
32.352343235033977
20
-78.831034948837384
30
0
10
32.265992024715032
20
-78.502682616844851
30
0
10
32.22122409370683
20
-78.332451597606905
30
0
0
SPLINE
5
708
100
AcDbEntity
8
0
100
AcDbSpline
70
0
71
3
72
9
73
5
74
0
42
0.000000001
43
0.0000000001
44
0.0000000001
40
0
40
0
40
0
40
0
40
0.24261440061148751
40
0.37856067193985998
40
0.37856067193985998
40
0.37856067193985998
40
0.37856067193985998
10
32.22122409370683
20
-78.332451597606905
30
0
10
33.050051653365273
20
-78.335469421827383
30
0
10
34.34330348473128
20
-78.340178250164968
30
0
10
35.458453803193393
20
-77.716558247934131
30
0
10
35.85891940620683
20
-77.492607847606905
30
0
0
LINE
5
709
100
AcDbEntity
8
0
100
AcDbLine
10
35.85891940620683
20
-77.492607847606919
30
0
11
32.34817721870683
21
-77.492607847606905
31
0
0
LINE
5
710
100
AcDbEntity
8
0
100
AcDbLine
10
32.34817721870683
20
-77.492607847606905
30
0
11
32.34817721870683
21
-76.496514097606905
31
0
0
LINE
5
711
100
AcDbEntity
8
0
100
AcDbLine
10
32.34817721870683
20
-76.496514097606905
30
0
11
36.32766940620683
21
-76.496514097606905
31
0
0
SPLINE
5
712
100
AcDbEntity
8
0
100
AcDbSpline
70
0
71
3
72
9
73
5
74
0
42
0.000000001
43
0.0000000001
44
0.0000000001
40
0
40
0
40
0
40
0
40
0.023741028245577056
40
0.049260731417383574
40
0.049260731417383574
40
0.049260731417383574
40
0.049260731417383574
10
36.32766940620683
20
-76.496514097606905
30
0
10
36.341407375942325
20
-76.41853644994535
30
0
10
36.369912562422037
20
-76.256739078817134
30
0
10
36.383899818979422
20
-76.093038522937206
30
0
10
36.39114596870683
20
-76.008232847606905
30
0
0
LINE
5
713
100
AcDbEntity
8
0
100
AcDbLine
10
36.391145968706837
20
-76.008232847606919
30
0
11
37.75833346870683
21
-76.008232847606905
31
0
0
SPLINE
5
714
100
AcDbEntity
8
0
100
AcDbSpline
70
0
71
3
72
9
73
5
74
0
42
0.000000001
43
0.0000000001
44
0.0000000001
40
0
40
0
40
0
40
0
40
0.025316570566918724
40
0.049318214088855936
40
0.049318214088855936
40
0.049318214088855936
40
0.049318214088855936
10
37.75833346870683
20
-76.008232847606905
30
0
10
37.749586434459886
20
-76.09219772263971
30
0
10
37.732546681524425
20
-76.255766388935427
30
0
10
37.703910455695258
20
-76.417704060728099
30
0
10
37.68997409370683
20
-76.496514097606905
30
0
0
LINE
5
715
100
AcDbEntity
8
0
100
AcDbLine
10
37.68997409370683
20
-76.496514097606905
30
0
11
39.00833346870683
21
-76.496514097606905
31
0
0
LINE
5
716
100
AcDbEntity
8
0
100
AcDbLine
10
39.00833346870683
20
-76.496514097606905
30
0
11
38.85208346870683
21
-76.115654722606905
31
0
0
LINE
5
717
100
AcDbEntity
8
0
100
AcDbLine
10
38.85208346870683
20
-76.115654722606905
30
0
11
40.102083468706837
21
-75.959404722606905
31
0
0
LINE
5
718
100
AcDbEntity
8
0
100
AcDbLine
10
40.102083468706837
20
-75.959404722606905
30
0
11
40.326692843706837
21
-76.496514097606905
31
0
0
LINE
5
719
100
AcDbEntity
8
0
100
AcDbLine
10
40.326692843706837
20
-76.496514097606905
30
0
11
41.801302218706837
21
-76.496514097606905
31
0
0
LINE
5
720
100
AcDbEntity
8
0
100
AcDbLine
10
41.801302218706837
20
-76.496514097606905
30
0
11
41.801302218706837
21
-77.492607847606905
31
0
0
LINE
5
721
100
AcDbEntity
8
0
100
AcDbLine
10
41.801302218706837
20
-77.492607847606905
30
0
11
37.958528781206837
21
-77.492607847606905
31
0
0
SPLINE
5
722
100
AcDbEntity
8
0
100
AcDbSpline
70
0
71
3
72
9
73
5
74
0
42
0.000000001
43
0.0000000001
44
0.0000000001
40
0
40
0
40
0
40
0
40
0.16305345223160742
40
0.40916709234927107
40
0.40916709234927107
40
0.40916709234927107
40
0.40916709234927107
10
37.95852878120683
20
-77.492607847606905
30
0
10
38.454352671593973
20
-77.728234913207586
30
0
10
39.698575451120519
20
-78.319518568911349
30
0
10
41.084723129709232
20
-78.33369194785061
30
0
10
41.918489718706837
20
-78.342217222606905
30
0
0
SPLINE
5
723
100
AcDbEntity
8
0
100
AcDbSpline
70
0
71
3
72
9
73
5
74
0
42
0.000000001
43
0.0000000001
44
0.0000000001
40
0
40
0
40
0
40
0
40
0.054495884486205362
40
0.10377662363826447
40
0.10377662363826447
40
0.10377662363826447
40
0.10377662363826447
10
41.918489718706837
20
-78.342217222606905
30
0
10
41.867237734871452
20
-78.516576217166246
30
0
10
41.769638477838633
20
-78.848608405044786
30
0
10
41.698408620318347
20
-79.187260017053887
30
0
10
41.664583468706837
20
-79.348076597606905
30
0
0
SPLINE
5
724
100
AcDbEntity
8
0
100
AcDbSpline
70
0
71
3
72
9
73
5
74
0
42
0.000000001
43
0.0000000001
44
0.0000000001
40
0
40
0
40
0
40
0
40
0.020276904094576286
40
0.040089934920038671
40
0.040089934920038671
40
0.040089934920038671
40
0.040089934920038671
10
41.664583468706837
20
-79.348076597606905
30
0
10
41.597016577581449
20
-79.346070892613412
30
0
10
41.463428518214428
20
-79.342105366994545
30
0
10
41.330090458481394
20
-79.333030352293704
30
0
10
41.264192843706837
20
-79.328545347606905
30
0
0
LINE
5
725
100
AcDbEntity
8
0
100
AcDbLine
10
41.26419284370683
20
-79.328545347606905
30
0
11
41.264192843706837
21
-82.277764097606905
31
0
0
LINE
5
726
100
AcDbEntity
8
0
100
AcDbLine
10
41.264192843706837
20
-82.277764097606905
30
0
11
40.131380343706837
21
-82.277764097606905
31
0
0
LINE
5
727
100
AcDbEntity
8
0
100
AcDbLine
10
40.131380343706837
20
-82.277764097606905
30
0
11
40.131380343706837
21
-81.906670347606905
31
0
0
LINE
5
728
100
AcDbEntity
8
0
100
AcDbLine
10
40.131380343706837
20
-81.906670347606905
30
0
11
38.568880343706837
21
-81.906670347606905
31
0
0
LINE
5
729
100
AcDbEntity
8
0
100
AcDbLine
10
38.568880343706837
20
-81.906670347606905
30
0
11
38.56888034370683
21
-82.258232847606905
31
0
0
LINE
5
730
100
AcDbEntity
8
0
100
AcDbLine
10
38.56888034370683
20
-82.258232847606905
30
0
11
37.43606784370683
21
-82.258232847606905
31
0
0
LWPOLYLINE
5
731
100
AcDbEntity
8
0
100
AcDbPolyline
90
4
70
1
43
0.0
10
38.568880343706837
20
-80.090264097606905
10
40.131380343706837
20
-80.090264097606905
10
40.131380343706837
20
-80.910576597606905
10
38.56888034370683
20
-80.910576597606905
0
LWPOLYLINE
5
732
100
AcDbEntity
8
0
100
AcDbPolyline
90
4
70
1
43
0.0
10
33.98880221870683
20
-80.090264097606905
10
35.54153659370683
20
-80.090264097606905
10
35.54153659370683
20
-80.910576597606905
10
33.98880221870683
20
-80.910576597606905
0
LINE
5
733
100
AcDbEntity
8
0
100
AcDbLine
10
57.27786471870683
20
-73.996514097606905
30
0
11
57.27786471870683
21
-79.304131285106905
31
0
0
SPLINE
5
734
100
AcDbEntity
8
0
100
AcDbSpline
70
0
71
3
72
9
73
5
74
0
42
0.000000001
43
0.0000000001
44
0.0000000001
40
0
40
0
40
0
40
0
40
0.056048886733352309
40
0.12158382077964525
40
0.12158382077964525
40
0.12158382077964525
40
0.12158382077964525
10
57.27786471870683
20
-79.304131285106905
30
0
10
57.451931837978904
20
-79.372309318815411
30
0
10
57.829526232206376
20
-79.520204242597885
30
0
10
58.219830461497153
20
-79.630449916648175
30
0
10
58.43020846870683
20
-79.689873472606905
30
0
0
SPLINE
5
735
100
AcDbEntity
8
0
100
AcDbSpline
70
0
71
3
72
9
73
5
74
0
42
0.000000001
43
0.0000000001
44
0.0000000001
40
0
40
0
40
0
40
0
40
0.14127839140688556
40
0.22240226545208647
40
0.22240226545208647
40
0.22240226545208647
40
0.22240226545208647
10
58.43020846870683
20
-79.689873472606905
30
0
10
58.368998069152134
20
-80.166798857889248
30
0
10
58.272639868902075
20
-80.917580949064941
30
0
10
57.847850691003593
20
-81.534981698889709
30
0
10
57.69290378120683
20
-81.760185972606905
30
0
0
SPLINE
5
736
100
AcDbEntity
8
0
100
AcDbSpline
70
0
71
3
72
9
73
5
74
0
42
0.000000001
43
0.0000000001
44
0.0000000001
40
0
40
0
40
0
40
0
40
0.06104211386125126
40
0.13202293038751708
40
0.13202293038751708
40
0.13202293038751708
40
0.13202293038751708
10
57.69290378120683
20
-81.760185972606905
30
0
10
57.513644076262189
20
-81.862570630469648
30
0
10
57.125938113113733
20
-82.084009923815302
30
0
10
56.678553083777388
20
-82.102049612992673
30
0
10
56.43802096870683
20
-82.111748472606905
30
0
0
LINE
5
737
100
AcDbEntity
8
0
100
AcDbLine
10
56.43802096870683
20
-82.111748472606877
30
0
11
54.09427096870683
21
-82.111748472606905
31
0
0
SPLINE
5
738
100
AcDbEntity
8
0
100
AcDbSpline
70
0
71
3
72
9
73
5
74
0
42
0.000000001
43
0.0000000001
44
0.0000000001
40
0
40
0
40
0
40
0
40
0.12473292429225068
40
0.24020524590863959
40
0.24020524590863959
40
0.24020524590863959
40
0.24020524590863959
10
54.09427096870683
20
-82.111748472606905
30
0
10
53.630201946572669
20
-82.061372529451049
30
0
10
52.736517987723623
20
-81.964360726975542
30
0
10
52.578457496287754
20
-81.087813080286821
30
0
10
52.50247409370683
20
-80.666435972606905
30
0
0
LINE
5
739
100
AcDbEntity
8
0
100
AcDbLine
10
52.502474093706823
20
-80.666435972606905
30
0
11
52.50247409370683
21
-79.689873472606905
31
0
0
LINE
5
740
100
AcDbEntity
8
0
100
AcDbLine
10
52.50247409370683
20
-79.689873472606905
30
0
11
50.58841159370683
21
-79.689873472606905
31
0
0
LINE
5
741
100
AcDbEntity
8
0
100
AcDbLine
10
50.58841159370683
20
-79.689873472606905
30
0
11
50.58841159370683
21
-80.451592222606905
31
0
0
LINE
5
742
100
AcDbEntity
8
0
100
AcDbLine
10
50.58841159370683
20
-80.451592222606905
30
0
11
49.18216159370683
21
-80.451592222606905
31
0
0
LINE
5
743
100
AcDbEntity
8
0
100
AcDbLine
10
49.18216159370683
20
-80.451592222606905
30
0
11
49.18216159370683
21
-73.996514097606905
31
0
0
LINE
5
744
100
AcDbEntity
8
0
100
AcDbLine
10
49.18216159370683
20
-73.996514097606905
30
0
11
52.50247409370683
21
-73.996514097606905
31
0
0
LINE
5
745
100
AcDbEntity
8
0
100
AcDbLine
10
52.50247409370683
20
-73.996514097606905
30
0
11
52.50247409370683
21
-72.795342222606905
31
0
0
LINE
5
746
100
AcDbEntity
8
0
100
AcDbLine
10
52.50247409370683
20
-72.795342222606905
30
0
11
53.91848971870683
21
-72.795342222606905
31
0
0
LINE
5
747
100
AcDbEntity
8
0
100
AcDbLine
10
53.91848971870683
20
-72.795342222606905
30
0
11
53.91848971870683
21
-73.996514097606905
31
0
0
LINE
5
748
100
AcDbEntity
8
0
100
AcDbLine
10
53.91848971870683
20
-73.996514097606905
30
0
11
57.27786471870683
21
-73.996514097606905
31
0
0
LWPOLYLINE
5
749
100
AcDbEntity
8
0
100
AcDbPolyline
90
4
70
1
43
0.0
10
53.91848971870683
20
-75.226982847606905
10
55.87161471870683
20
-75.226982847606905
10
55.87161471870683
20
-76.223076597606905
10
53.91848971870683
20
-76.223076597606905
0
LWPOLYLINE
5
750
100
AcDbEntity
8
0
100
AcDbPolyline
90
4
70
1
43
0.0
10
50.58841159370683
20
-76.223076597606905
10
50.58841159370683
20
-75.226982847606905
10
52.50247409370683
20
-75.226982847606905
10
52.50247409370683
20
-76.223076597606905
0
LWPOLYLINE
5
751
100
AcDbEntity
8
0
100
AcDbPolyline
90
4
70
1
43
0.0
10
55.87161471870683
20
-77.453545347606905
10
55.87161471870683
20
-78.459404722606905
10
53.91848971870683
20
-78.459404722606905
10
53.91848971870683
20
-77.453545347606905
0
LWPOLYLINE
5
752
100
AcDbEntity
8
0
100
AcDbPolyline
90
4
70
1
43
0.0
10
52.50247409370683
20
-78.459404722606905
10
50.58841159370683
20
-78.459404722606905
10
50.58841159370683
20
-77.453545347606905
10
52.50247409370683
20
-77.453545347606905
0
LINE
5
753
100
AcDbEntity
8
0
100
AcDbLine
10
54.51419284370683
20
-80.900810972606905
30
0
11
55.97903659370683
21
-80.900810972606905
31
0
0
SPLINE
5
754
100
AcDbEntity
8
0
100
AcDbSpline
70
0
71
3
72
9
73
5
74
0
42
0.000000001
43
0.0000000001
44
0.0000000001
40
0
40
0
40
0
40
0
40
0.032498054171046169
40
0.058979505646257327
40
0.058979505646257327
40
0.058979505646257327
40
0.058979505646257327
10
55.97903659370683
20
-80.900810972606905
30
0
10
56.088645362471034
20
-80.898100655536368
30
0
10
56.28757022616233
20
-80.893181802237564
30
0
10
56.468906662025873
20
-80.812517190532276
30
0
10
56.55032565620683
20
-80.776299253856905
30
0
0
SPLINE
5
755
100
AcDbEntity
8
0
100
AcDbSpline
70
0
71
3
72
9
73
5
74
0
42
0.000000001
43
0.0000000001
44
0.0000000001
40
0
40
0
40
0
40
0
40
0.022727135229778515
40
0.04448212330074959
40
0.04448212330074959
40
0.04448212330074959
40
0.04448212330074959
10
56.55032565620683
20
-80.776299253856905
30
0
10
56.613869081501768
20
-80.731752832928606
30
0
10
56.738237878991811
20
-80.644565452367601
30
0
10
56.794033594052948
20
-80.503495720561233
30
0
10
56.82132174995683
20
-80.434502378856905
30
0
0
SPLINE
5
756
100
AcDbEntity
8
0
100
AcDbSpline
70
0
71
3
72
9
73
5
74
0
42
0.000000001
43
0.0000000001
44
0.0000000001
40
0
40
0
40
0
40
0
40
0.030248447070969291
40
0.075957952277378518
40
0.075957952277378518
40
0.075957952277378518
40
0.075957952277378518
10
56.82132174995683
20
-80.434502378856905
30
0
10
56.844835942099941
20
-80.336426686561865
30
0
10
56.903883267090109
20
-80.090145324168645
30
0
10
56.945315000036231
20
-79.840252453653491
30
0
10
56.97024753120683
20
-79.689873472606905
30
0
0
LINE
5
757
100
AcDbEntity
8
0
100
AcDbLine
10
56.97024753120683
20
-79.689873472606905
30
0
11
53.91848971870683
21
-79.689873472606905
31
0
0
LINE
5
758
100
AcDbEntity
8
0
100
AcDbLine
10
53.91848971870683
20
-79.689873472606905
30
0
11
53.91848971870683
21
-80.383232847606905
31
0
0
SPLINE
5
759
100
AcDbEntity
8
0
100
AcDbSpline
70
0
71
3
72
9
73
5
74
0
42
0.000000001
43
0.0000000001
44
0.0000000001
40
0
40
0
40
0
40
0
40
0.041577083925834417
40
0.088090838838302293
40
0.088090838838302293
40
0.088090838838302293
40
0.088090838838302293
10
53.91848971870683
20
-80.383232847606905
30
0
10
53.948431727242323
20
-80.534064865306178
30
0
10
54.01187092016648
20
-80.853637998104588
30
0
10
54.340611257910602
20
-80.884509952609349
30
0
10
54.51419284370683
20
-80.900810972606905
30
0
0
LINE
5
760
100
AcDbEntity
8
0
100
AcDbLine
10
60.34427096870683
20
-82.414482847606905
30
0
11
60.34427096870683
21
-79.445732847606905
31
0
0
SPLINE
5
761
100
AcDbEntity
8
0
100
AcDbSpline
70
0
71
3
72
9
73
5
74
0
42
0.000000001
43
0.0000000001
44
0.0000000001
40
0
40
0
40
0
40
0
40
0.052353792508244693
40
0.10630887063324469
40
0.10630887063324469
40
0.10630887063324469
40
0.10630887063324469
10
60.34427096870683
20
-79.445732847606905
30
0
10
60.185155643912324
20
-79.517439902884092
30
0
10
59.862058315735347
20
-79.663047235184877
30
0
10
59.534138191824042
20
-79.797444105701075
30
0
10
59.36770846870683
20
-79.865654722606905
30
0
0
SPLINE
5
762
100
AcDbEntity
8
0
100
AcDbSpline
70
0
71
3
72
9
73
5
74
0
42
0.000000001
43
0.0000000001
44
0.0000000001
40
0
40
0
40
0
40
0
40
0.062234313826898445
40
0.13115811369747024
40
0.13115811369747024
40
0.13115811369747024
40
0.13115811369747024
10
59.36770846870683
20
-79.865654722606905
30
0
10
59.277680157982289
20
-79.678624706748082
30
0
10
59.08794650964731
20
-79.284461060096774
30
0
10
58.861635348289063
20
-78.910059562343008
30
0
10
58.74270846870683
20
-78.713310972606905
30
0
0
SPLINE
5
763
100
AcDbEntity
8
0
100
AcDbSpline
70
0
71
3
72
9
73
5
74
0
42
0.000000001
43
0.0000000001
44
0.0000000001
40
0
40
0
40
0
40
0
40
0.26065770755877554
40
0.50924861658811327
40
0.50924861658811327
40
0.50924861658811327
40
0.50924861658811327
10
58.74270846870683
20
-78.713310972606905
30
0
10
59.569495964807345
20
-78.419803282504859
30
0
10
61.184795940184443
20
-77.846375446657206
30
0
10
62.483663309676515
20
-76.729311492274931
30
0
10
63.11770846870683
20
-76.184014097606905
30
0
0
LINE
5
764
100
AcDbEntity
8
0
100
AcDbLine
10
63.11770846870683
20
-76.184014097606905
30
0
11
64.377474093706837
21
-76.184014097606905
31
0
0
LINE
5
765
100
AcDbEntity
8
0
100
AcDbLine
10
64.377474093706837
20
-76.184014097606905
30
0
11
64.250520968706837
21
-76.359795347606905
31
0
0
SPLINE
5
766
100
AcDbEntity
8
0
100
AcDbSpline
70
0
71
3
72
9
73
5
74
0
42
0.000000001
43
0.0000000001
44
0.0000000001
40
0
40
0
40
0
40
0
40
0.23770835671409427
40
0.48322705041967107
40
0.48322705041967107
40
0.48322705041967107
40
0.48322705041967107
10
64.250520968706837
20
-76.359795347606905
30
0
10
64.864509687662931
20
-76.874072668502663
30
0
10
66.112660832845251
20
-77.91952481965734
30
0
10
67.668839733263411
20
-78.400551082973351
30
0
10
68.459505343706837
20
-78.644951597606905
30
0
0
SPLINE
5
767
100
AcDbEntity
8
0
100
AcDbSpline
70
0
71
3
72
9
73
5
74
0
42
0.000000001
43
0.0000000001
44
0.0000000001
40
0
40
0
40
0
40
0
40
0.068919475782618075
40
0.13673697794952697
40
0.13673697794952697
40
0.13673697794952697
40
0.13673697794952697
10
68.459505343706837
20
-78.644951597606905
30
0
10
68.348794975796068
20
-78.84634167079129
30
0
10
68.129144420363147
20
-79.245901732494644
30
0
10
67.938717230230893
20
-79.660183301370068
30
0
10
67.844270968706837
20
-79.865654722606905
30
0
0
SPLINE
5
768
100
AcDbEntity
8
0
100
AcDbSpline
70
0
71
3
72
9
73
5
74
0
42
0.000000001
43
0.0000000001
44
0.0000000001
40
0
40
0
40
0
40
0
40
0.055005917664269349
40
0.1082856587679267
40
0.1082856587679267
40
0.1082856587679267
40
0.1082856587679267
10
67.844270968706837
20
-79.865654722606905
30
0
10
67.671837796240681
20
-79.803173726107971
30
0
10
67.332382689102843
20
-79.680172489992657
30
0
10
67.001309417723036
20
-79.536134862736176
30
0
10
66.838411593706837
20
-79.465264097606905
30
0
0
LINE
5
769
100
AcDbEntity
8
0
100
AcDbLine
10
66.838411593706837
20
-79.465264097606905
30
0
11
66.838411593706837
21
-82.414482847606905
31
0
0
LINE
5
770
100
AcDbEntity
8
0
100
AcDbLine
10
66.838411593706837
20
-82.414482847606905
30
0
11
65.568880343706837
21
-82.414482847606905
31
0
0
LINE
5
771
100
AcDbEntity
8
0
100
AcDbLine
10
65.568880343706837
20
-82.414482847606905
30
0
11
65.568880343706837
21
-81.906670347606905
31
0
0
LINE
5
772
100
AcDbEntity
8
0
100
AcDbLine
10
65.568880343706837
20
-81.906670347606905
30
0
11
61.61380221870683
21
-81.906670347606905
31
0
0
LINE
5
773
100
AcDbEntity
8
0
100
AcDbLine
10
61.61380221870683
20
-81.906670347606905
30
0
11
61.61380221870683
21
-82.414482847606905
31
0
0
LINE
5
774
100
AcDbEntity
8
0
100
AcDbLine
10
61.61380221870683
20
-82.414482847606905
30
0
11
60.34427096870683
21
-82.414482847606905
31
0
0
LINE
5
775
100
AcDbEntity
8
0
100
AcDbLine
10
62.57083346870683
20
-72.912529722606905
30
0
11
64.182161593706837
21
-72.717217222606905
31
0
0
SPLINE
5
776
100
AcDbEntity
8
0
100
AcDbSpline
70
0
71
3
72
9
73
5
74
0
42
0.000000001
43
0.0000000001
44
0.0000000001
40
0
40
0
40
0
40
0
40
0.042525344472271492
40
0.096477660754809139
40
0.096477660754809139
40
0.096477660754809139
40
0.096477660754809139
10
64.182161593706837
20
-72.717217222606905
30
0
10
64.234414202504524
20
-72.848986854603424
30
0
10
64.352960202018437
20
-73.147933894570031
30
0
10
64.468892396933967
20
-73.447904766493366
30
0
10
64.533724093706837
20
-73.615654722606905
30
0
0
LINE
5
777
100
AcDbEntity
8
0
100
AcDbLine
10
64.533724093706837
20
-73.615654722606905
30
0
11
68.039583468706837
21
-73.615654722606905
31
0
0
LINE
5
778
100
AcDbEntity
8
0
100
AcDbLine
10
68.039583468706837
20
-73.615654722606905
30
0
11
68.039583468706837
21
-75.754326597606905
31
0
0
LINE
5
779
100
AcDbEntity
8
0
100
AcDbLine
10
68.039583468706837
20
-75.754326597606905
30
0
11
66.623567843706837
21
-75.754326597606905
31
0
0
LINE
5
780
100
AcDbEntity
8
0
100
AcDbLine
10
66.623567843706837
20
-75.754326597606905
30
0
11
66.623567843706837
21
-74.738701597606905
31
0
0
LINE
5
781
100
AcDbEntity
8
0
100
AcDbLine
10
66.623567843706837
20
-74.738701597606905
30
0
11
60.54934909370683
21
-74.738701597606905
31
0
0
LINE
5
782
100
AcDbEntity
8
0
100
AcDbLine
10
60.54934909370683
20
-74.738701597606905
30
0
11
60.54934909370683
21
-75.754326597606905
31
0
0
LINE
5
783
100
AcDbEntity
8
0
100
AcDbLine
10
60.54934909370683
20
-75.754326597606905
30
0
11
59.13333346870683
21
-75.754326597606905
31
0
0
LINE
5
784
100
AcDbEntity
8
0
100
AcDbLine
10
59.13333346870683
20
-75.754326597606905
30
0
11
59.13333346870683
21
-73.615654722606905
31
0
0
LINE
5
785
100
AcDbEntity
8
0
100
AcDbLine
10
59.13333346870683
20
-73.615654722606905
30
0
11
62.86380221870683
21
-73.615654722606905
31
0
0
SPLINE
5
786
100
AcDbEntity
8
0
100
AcDbSpline
70
0
71
3
72
9
73
5
74
0
42
0.000000001
43
0.0000000001
44
0.0000000001
40
0
40
0
40
0
40
0
40
0.041166482242886701
40
0.076173217260337711
40
0.076173217260337711
40
0.076173217260337711
40
0.076173217260337711
10
62.86380221870683
20
-73.615654722606905
30
0
10
62.812126518598305
20
-73.488531519965335
30
0
10
62.716507361532067
20
-73.253306579526793
30
0
10
62.616701156726265
20
-73.019828609554324
30
0
10
62.57083346870683
20
-72.912529722606905
30
0
0
LWPOLYLINE
5
787
100
AcDbEntity
8
0
100
AcDbPolyline
90
4
70
1
43
0.0
10
61.61380221870683
20
-79.689873472606905
10
65.568880343706837
20
-79.689873472606905
10
65.568880343706837
20
-80.812920347606905
10
61.61380221870683
20
-80.812920347606905
0
LINE
5
788
100
AcDbEntity
8
0
100
AcDbLine
10
62.30716159370683
20
-74.855889097606905
30
0
11
63.06888034370683
21
-75.744560972606905
31
0
0
SPLINE
5
789
100
AcDbEntity
8
0
100
AcDbSpline
70
0
71
3
72
9
73
5
74
0
42
0.000000001
43
0.0000000001
44
0.0000000001
40
0
40
0
40
0
40
0
40
0.17459042166778441
40
0.37050867177194635
40
0.37050867177194635
40
0.37050867177194635
40
0.37050867177194635
10
63.06888034370683
20
-75.744560972606905
30
0
10
62.584859567796144
20
-76.068795907639412
30
0
10
61.557690419113193
20
-76.756874062061598
30
0
10
60.450969334181615
20
-77.308395311883075
30
0
10
59.86575534370683
20
-77.600029722606905
30
0
0
SPLINE
5
790
100
AcDbEntity
8
0
100
AcDbSpline
70
0
71
3
72
9
73
5
74
0
42
0.000000001
43
0.0000000001
44
0.0000000001
40
0
40
0
40
0
40
0
40
0.056991542422936414
40
0.13015108238113837
40
0.13015108238113837
40
0.13015108238113837
40
0.13015108238113837
10
59.86575534370683
20
-77.600029722606905
30
0
10
59.771763072741273
20
-77.434905279748222
30
0
10
59.557113753183529
20
-77.057812047104079
30
0
10
59.323336382447692
20
-76.692240679144788
30
0
10
59.19192721870683
20
-76.486748472606905
30
0
0
SPLINE
5
791
100
AcDbEntity
8
0
100
AcDbSpline
70
0
71
3
72
9
73
5
74
0
42
0.000000001
43
0.0000000001
44
0.0000000001
40
0
40
0
40
0
40
0
40
0.17554542829514161
40
0.35207412616656469
40
0.35207412616656469
40
0.35207412616656469
40
0.35207412616656469
10
59.19192721870683
20
-76.486748472606905
30
0
10
59.730130476277104
20
-76.254769547021439
30
0
10
60.809551589371949
20
-75.789512329515077
30
0
10
61.807029676202262
20
-75.167675728204657
30
0
10
62.30716159370683
20
-74.855889097606905
30
0
0
SPLINE
5
792
100
AcDbEntity
8
0
100
AcDbSpline
70
0
71
3
72
9
73
5
74
0
42
0.000000001
43
0.0000000001
44
0.0000000001
40
0
40
0
40
0
40
0
40
0.17404761012715142
40
0.35553738940367718
40
0.35553738940367718
40
0.35553738940367718
40
0.35553738940367718
10
64.826692843706837
20
-74.924248472606905
30
0
10
65.350137277577602
20
-75.174590395934828
30
0
10
66.419408308534855
20
-75.685978709817917
30
0
10
67.466179683123173
20
-76.241987395528923
30
0
10
68.000520968706837
20
-76.525810972606905
30
0
0
LINE
5
793
100
AcDbEntity
8
0
100
AcDbLine
10
68.000520968706823
20
-76.525810972606905
30
0
11
67.307161593706837
21
-77.629326597606905
31
0
0
SPLINE
5
794
100
AcDbEntity
8
0
100
AcDbSpline
70
0
71
3
72
9
73
5
74
0
42
0.000000001
43
0.0000000001
44
0.0000000001
40
0
40
0
40
0
40
0
40
0.17219790557048401
40
0.36086032809832147
40
0.36086032809832147
40
0.36086032809832147
40
0.36086032809832147
10
67.307161593706837
20
-77.629326597606905
30
0
10
66.82384379352159
20
-77.31933608698111
30
0
10
65.810996283136433
20
-76.669715657503787
30
0
10
64.754199696460816
20
-76.094249965564146
30
0
10
64.201692843706837
20
-75.793389097606905
30
0
0
LINE
5
795
100
AcDbEntity
8
0
100
AcDbLine
10
64.201692843706823
20
-75.793389097606905
30
0
11
64.826692843706837
21
-74.924248472606905
31
0
0
SPLINE
5
796
100
AcDbEntity
8
0
100
AcDbSpline
70
0
71
3
72
9
73
5
74
0
42
0.000000001
43
0.0000000001
44
0.0000000001
40
0
40
0
40
0
40
0
40
0.10318371806154375
40
0.21650942029422149
40
0.21650942029422149
40
0.21650942029422149
40
0.21650942029422149
10
63.58645846870683
20
-77.248467222606905
30
0
10
63.337959713539178
20
-77.487340804151756
30
0
10
62.816537124433651
20
-77.98856698242372
30
0
10
62.212940723716684
20
-78.38737746227136
30
0
10
61.89700534370683
20
-78.596123472606905
30
0
0
LINE
5
797
100
AcDbEntity
8
0
100
AcDbLine
10
61.897005343706823
20
-78.596123472606905
30
0
11
65.217317843706837
21
-78.596123472606905
31
0
0
SPLINE
5
798
100
AcDbEntity
8
0
100
AcDbSpline
70
0
71
3
72
9
73
5
74
0
42
0.000000001
43
0.0000000001
44
0.0000000001
40
0
40
0
40
0
40
0
40
0.10890012923654221
40
0.21200410001869077
40
0.21200410001869077
40
0.21200410001869077
40
0.21200410001869077
10
65.217317843706837
20
-78.596123472606905
30
0
10
64.915855848437076
20
-78.392167185334813
30
0
10
64.328977031625186
20
-77.995110088806001
30
0
10
63.829411979931628
20
-77.492770213849383
30
0
10
63.58645846870683
20
-77.248467222606905
30
0
0
LINE
5
799
100
AcDbEntity
8
0
100
AcDbLine
10
-96.286881504388774
20
-165.58238821513891
30
0
11
-96.286881504388774
21
-169.01012259013891
31
0
0
LINE
5
800
100
AcDbEntity
8
0
100
AcDbLine
10
-96.286881504388774
20
-169.01012259013891
30
0
11
-98.381607843371356
21
-169.01012259013891
31
0
0
LINE
5
801
100
AcDbEntity
8
0
100
AcDbLine
10
-98.381607843371356
20
-169.01012259013891
30
0
11
-98.381607843371356
21
-159.17760329730748
31
0
0
LINE
5
802
100
AcDbEntity
8
0
100
AcDbLine
10
-98.381607843371356
20
-159.17760329730748
30
0
11
-94.998307166429484
21
-159.17760329730748
31
0
0
SPLINE
5
803
100
AcDbEntity
8
0
100
AcDbSpline
70
0
71
3
72
9
73
5
74
0
42
0.000000001
43
0.0000000001
44
0.0000000001
40
0
40
0
40
0
40
0
40
0.28594655609328851
40
0.53660785369955633
40
0.53660785369955633
40
0.53660785369955633
40
0.53660785369955633
10
-94.998307166429484
20
-159.17760329730748
30
0
10
-93.92961330750353
20
-159.26951499571598
30
0
10
-91.924100369228938
20
-159.44199666462194
30
0
10
-91.518722993774318
20
-161.38182056894249
30
0
10
-91.329362330766642
20
-162.28795485980748
30
0
0
SPLINE
5
804
100
AcDbEntity
8
0
100
AcDbSpline
70
0
71
3
72
9
73
5
74
0
42
0.000000001
43
0.0000000001
44
0.0000000001
40
0
40
0
40
0
40
0
40
0.13886690685960926
40
0.27360928782721444
40
0.27360928782721444
40
0.27360928782721444
40
0.27360928782721444
10
-91.329362330766642
20
-162.28795485980748
30
0
10
-91.372668341805507
20
-162.76417159372824
30
0
10
-91.457994119609111
20
-163.70246081155597
30
0
10
-92.113979745239703
20
-164.37726805382454
30
0
10
-92.437028227182353
20
-164.70958548076391
30
0
0
SPLINE
5
805
100
AcDbEntity
8
0
100
AcDbSpline
70
0
71
3
72
9
73
5
74
0
42
0.000000001
43
0.0000000001
44
0.0000000001
40
0
40
0
40
0
40
0
40
0.14169019960499513
40
0.29540886222501528
40
0.29540886222501528
40
0.29540886222501528
40
0.29540886222501528
10
-92.437028227182353
20
-164.70958548076391
30
0
10
-92.839869558718462
20
-164.97330997447318
30
0
10
-93.679750508410478
20
-165.52314724511518
30
0
10
-94.68479545306667
20
-165.56211236433793
30
0
10
-95.20777964386555
20
-165.58238821513891
30
0
0
LINE
5
806
100
AcDbEntity
8
0
100
AcDbLine
10
-95.207779643865535
20
-165.58238821513893
30
0
11
-96.286881504388774
21
-165.58238821513891
31
0
0
LINE
5
807
100
AcDbEntity
8
0
100
AcDbLine
10
-96.286881504388774
20
-160.80260353572606
30
0
11
-96.286881504388774
21
-163.97643166072606
31
0
0
LINE
5
808
100
AcDbEntity
8
0
100
AcDbLine
10
-96.286881504388774
20
-163.97643166072606
30
0
11
-95.379166541429484
21
-163.97643166072606
31
0
0
SPLINE
5
809
100
AcDbEntity
8
0
100
AcDbSpline
70
0
71
3
72
9
73
5
74
0
42
0.000000001
43
0.0000000001
44
0.0000000001
40
0
40
0
40
0
40
0
40
0.14423800723686514
40
0.27323387459687432
40
0.27323387459687432
40
0.27323387459687432
40
0.27323387459687432
10
-95.379166541429484
20
-163.97643166072606
30
0
10
-94.840916557802501
20
-163.92577092631359
30
0
10
-93.82129536817672
20
-163.82980295629923
30
0
10
-93.624776865488286
20
-162.83848400589295
30
0
10
-93.531998930307353
20
-162.37047451026677
30
0
0
SPLINE
5
810
100
AcDbEntity
8
0
100
AcDbSpline
70
0
71
3
72
9
73
5
74
0
42
0.000000001
43
0.0000000001
44
0.0000000001
40
0
40
0
40
0
40
0
40
0.12615969698384352
40
0.26876178154822494
40
0.26876178154822494
40
0.26876178154822494
40
0.26876178154822494
10
-93.531998930307353
20
-162.37047451026677
30
0
10
-93.62519909014307
20
-161.91363941882094
30
0
10
-93.823746182414794
20
-160.94042993920053
30
0
10
-94.827527813507345
20
-160.85038199674941
30
0
10
-95.360123453470194
20
-160.80260353572606
30
0
0
LINE
5
811
100
AcDbEntity
8
0
100
AcDbLine
10
-95.360123453470194
20
-160.80260353572606
30
0
11
-96.286881504388774
21
-160.80260353572606
31
0
0
SPLINE
5
812
100
AcDbEntity
8
0
100
AcDbSpline
70
0
71
3
72
9
73
5
74
0
42
0.000000001
43
0.0000000001
44
0.0000000001
40
0
40
0
40
0
40
0
40
0.12978224350113177
40
0.28664723767075806
40
0.28664723767075806
40
0.28664723767075806
40
0.28664723767075806
10
-82.823502359720194
20
-168.65465360172033
30
0
10
-83.231267422050649
20
-168.80796175796317
30
0
10
-84.13188930669736
20
-169.14657017090087
30
0
10
-85.095494927293515
20
-169.16915206009332
30
0
10
-85.622819004388774
20
-169.18150978572606
30
0
0
SPLINE
5
813
100
AcDbEntity
8
0
100
AcDbSpline
70
0
71
3
72
9
73
5
74
0
42
0.000000001
43
0.0000000001
44
0.0000000001
40
0
40
0
40
0
40
0
40
0.20199187253005849
40
0.3849441797554245
40
0.3849441797554245
40
0.3849441797554245
40
0.3849441797554245
10
-85.622819004388774
20
-169.18150978572606
30
0
10
-86.313092030937497
20
-169.13791773711679
30
0
10
-87.628573593060992
20
-169.05484258569825
30
0
10
-88.65914391321553
20
-168.23928509400193
30
0
10
-89.148942766519511
20
-167.85167532451391
30
0
0
SPLINE
5
814
100
AcDbEntity
8
0
100
AcDbSpline
70
0
71
3
72
9
73
5
74
0
42
0.000000001
43
0.0000000001
44
0.0000000001
40
0
40
0
40
0
40
0
40
0.18339524577720048
40
0.38544018490216436
40
0.38544018490216436
40
0.38544018490216436
40
0.38544018490216436
10
-89.148942766519511
20
-167.85167532451391
30
0
10
-89.529162527833421
20
-167.35512086174651
30
0
10
-90.328267076499515
20
-166.31151668797435
30
0
10
-90.410355496731853
20
-164.99606124031385
30
0
10
-90.453385649057353
20
-164.30650907047033
30
0
0
SPLINE
5
815
100
AcDbEntity
8
0
100
AcDbSpline
70
0
71
3
72
9
73
5
74
0
42
0.000000001
43
0.0000000001
44
0.0000000001
40
0
40
0
40
0
40
0
40
0.21488250528903374
40
0.41646357129815859
40
0.41646357129815859
40
0.41646357129815859
40
0.41646357129815859
10
-90.453385649057353
20
-164.30650907047033
30
0
10
-90.400824669897176
20
-163.57377277275245
30
0
10
-90.298956288092285
20
-162.15365727774309
30
0
10
-89.42137443581862
20
-161.03581278532201
30
0
10
-88.996598062845194
20
-160.49474196918248
30
0
0
SPLINE
5
816
100
AcDbEntity
8
0
100
AcDbSpline
70
0
71
3
72
9
73
5
74
0
42
0.000000001
43
0.0000000001
44
0.0000000001
40
0
40
0
40
0
40
0
40
0.20050149758949418
40
0.41299195798959809
40
0.41299195798959809
40
0.41299195798959809
40
0.41299195798959809
10
-88.996598062845194
20
-160.49474196918248
30
0
10
-88.465116854770756
20
-160.06254131241491
30
0
10
-87.370374584033513
20
-159.17229661285523
30
0
10
-85.960838739283247
20
-159.06682915617327
30
0
10
-85.235611734720194
20
-159.01256459243535
30
0
0
SPLINE
5
817
100
AcDbEntity
8
0
100
AcDbSpline
70
0
71
3
72
9
73
5
74
0
42
0.000000001
43
0.0000000001
44
0.0000000001
40
0
40
0
40
0
40
0
40
0.13267929976581305
40
0.24510696471079146
40
0.24510696471079146
40
0.24510696471079146
40
0.24510696471079146
10
-85.235611734720194
20
-159.01256459243535
30
0
10
-84.790952423758696
20
-159.0223150947165
30
0
10
-83.969504811112742
20
-159.04032782181685
30
0
10
-83.183865717404828
20
-159.27804021177732
30
0
10
-82.823502359720194
20
-159.38707607276677
30
0
0
LINE
5
818
100
AcDbEntity
8
0
100
AcDbLine
10
-82.823502359720194
20
-159.38707607276677
30
0
11
-82.823502359720194
21
-161.4119781780982
31
0
0
SPLINE
5
819
100
AcDbEntity
8
0
100
AcDbSpline
70
0
71
3
72
9
73
5
74
0
42
0.000000001
43
0.0000000001
44
0.0000000001
40
0
40
0
40
0
40
0
40
0.11499116090332667
40
0.23553202632622078
40
0.23553202632622078
40
0.23553202632622078
40
0.23553202632622078
10
-82.823502359720194
20
-161.4119781780982
30
0
10
-83.17154893184312
20
-161.24167590662745
30
0
10
-83.884439503118671
20
-160.89285223381324
30
0
10
-84.677431176911725
20
-160.84995031713544
30
0
10
-85.083269415231669
20
-160.82799392230748
30
0
0
SPLINE
5
820
100
AcDbEntity
8
0
100
AcDbSpline
70
0
71
3
72
9
73
5
74
0
42
0.000000001
43
0.0000000001
44
0.0000000001
40
0
40
0
40
0
40
0
40
0.13167691453525229
40
0.25382291768029436
40
0.25382291768029436
40
0.25382291768029436
40
0.25382291768029436
10
-85.083269415231669
20
-160.82799392230748
30
0
10
-85.533612306291587
20
-160.860247102681
30
0
10
-86.401701803747159
20
-160.92241894484303
30
0
10
-87.067209185104929
20
-161.48005534771301
30
0
10
-87.387468157144511
20
-161.74840407855748
30
0
0
SPLINE
5
821
100
AcDbEntity
8
0
100
AcDbSpline
70
0
71
3
72
9
73
5
74
0
42
0.000000001
43
0.0000000001
44
0.0000000001
40
0
40
0
40
0
40
0
40
0.12435016806901127
40
0.26048338998903381
40
0.26048338998903381
40
0.26048338998903381
40
0.26048338998903381
10
-87.387468157144511
20
-161.74840407855748
30
0
10
-87.639117408068486
20
-162.08906810246773
30
0
10
-88.166261448054826
20
-162.80267646483207
30
0
10
-88.221749445581423
20
-163.69028543072645
30
0
10
-88.250748453470194
20
-164.15416555888891
30
0
0
SPLINE
5
822
100
AcDbEntity
8
0
100
AcDbSpline
70
0
71
3
72
9
73
5
74
0
42
0.000000001
43
0.0000000001
44
0.0000000001
40
0
40
0
40
0
40
0
40
0.13219758969882495
40
0.25156409748577679
40
0.25156409748577679
40
0.25156409748577679
40
0.25156409748577679
10
-88.250748453470194
20
-164.15416555888891
30
0
10
-88.22415176007263
20
-164.60461207054942
30
0
10
-88.173539845090616
20
-165.46178481045825
30
0
10
-87.670562481917784
20
-166.15488191835863
30
0
10
-87.431901035638774
20
-166.48375468738317
30
0
0
SPLINE
5
823
100
AcDbEntity
8
0
100
AcDbSpline
70
0
71
3
72
9
73
5
74
0
42
0.000000001
43
0.0000000001
44
0.0000000001
40
0
40
0
40
0
40
0
40
0.11686616583707801
40
0.24400176326919701
40
0.24400176326919701
40
0.24400176326919701
40
0.24400176326919701
10
-87.431901035638774
20
-166.48375468738317
30
0
10
-87.12579692545917
20
-166.74097454658119
30
0
10
-86.486690285031756
20
-167.27801705792413
30
0
10
-85.651657742680214
20
-167.33591335512619
30
0
10
-85.216569242807353
20
-167.36607985980748
30
0
0
SPLINE
5
824
100
AcDbEntity
8
0
100
AcDbSpline
70
0
71
3
72
9
73
5
74
0
42
0.000000001
43
0.0000000001
44
0.0000000001
40
0
40
0
40
0
40
0
40
0.12652412684768144
40
0.24986406252472493
40
0.24986406252472493
40
0.24986406252472493
40
0.24986406252472493
10
-85.216569242807353
20
-167.36607985980748
30
0
10
-84.790720838227585
20
-167.34100560634755
30
0
10
-83.949741216087475
20
-167.29148813493424
30
0
10
-83.195712273790363
20
-166.91644572627729
30
0
10
-82.823502359720194
20
-166.73131423480748
30
0
0
LINE
5
825
100
AcDbEntity
8
0
100
AcDbLine
10
-82.823502359720194
20
-166.73131423480748
30
0
11
-82.823502359720194
21
-168.65465360172033
31
0
0
LINE
5
826
100
AcDbEntity
8
0
100
AcDbLine
10
-81.084245977731669
20
-169.01012259013891
30
0
11
-81.084245977731669
21
-159.17760329730748
31
0
0
LINE
5
827
100
AcDbEntity
8
0
100
AcDbLine
10
-81.084245977731669
20
-159.17760329730748
30
0
11
-77.593035040231669
21
-159.17760329730748
31
0
0
SPLINE
5
828
100
AcDbEntity
8
0
100
AcDbSpline
70
0
71
3
72
9
73
5
74
0
42
0.000000001
43
0.0000000001
44
0.0000000001
40
0
40
0
40
0
40
0
40
0.14300115677626166
40
0.25785704393160325
40
0.25785704393160325
40
0.25785704393160325
40
0.25785704393160325
10
-77.593035040231669
20
-159.17760329730748
30
0
10
-77.108914544094048
20
-159.18987092647652
30
0
10
-76.235957409655896
20
-159.21199168874784
30
0
10
-75.462130634192761
20
-159.60978955486689
30
0
10
-75.117449102731669
20
-159.78697853572606
30
0
0
SPLINE
5
829
100
AcDbEntity
8
0
100
AcDbSpline
70
0
71
3
72
9
73
5
74
0
42
0.000000001
43
0.0000000001
44
0.0000000001
40
0
40
0
40
0
40
0
40
0.09765444040122509
40
0.19624832010920501
40
0.19624832010920501
40
0.19624832010920501
40
0.19624832010920501
10
-75.117449102731669
20
-159.78697853572606
30
0
10
-74.863809743301147
20
-160.01052907704832
30
0
10
-74.35409100447778
20
-160.45978072411884
30
0
10
-74.283356350017513
20
-161.13581800655749
30
0
10
-74.247819719644511
20
-161.4754547405982
30
0
0
SPLINE
5
830
100
AcDbEntity
8
0
100
AcDbSpline
70
0
71
3
72
9
73
5
74
0
42
0.000000001
43
0.0000000001
44
0.0000000001
40
0
40
0
40
0
40
0
40
0.076263386448548062
40
0.15301922004315316
40
0.15301922004315316
40
0.15301922004315316
40
0.15301922004315316
10
-74.247819719644511
20
-161.4754547405982
30
0
10
-74.270589007128493
20
-161.73417836774618
30
0
10
-74.316274607702837
20
-162.25329624955737
30
0
10
-74.630001990203496
20
-162.66951026941655
30
0
10
-74.787370500894511
20
-162.87828701026677
30
0
0
SPLINE
5
831
100
AcDbEntity
8
0
100
AcDbSpline
70
0
71
3
72
9
73
5
74
0
42
0.000000001
43
0.0000000001
44
0.0000000001
40
0
40
0
40
0
40
0
40
0.079424483362092832
40
0.16096067018872656
40
0.16096067018872656
40
0.16096067018872656
40
0.16096067018872656
10
-74.787370500894511
20
-162.87828701026677
30
0
10
-74.980605626632141
20
-163.06417309663473
30
0
10
-75.372213529209631
20
-163.44088752742488
30
0
10
-75.885672351427203
20
-163.61940159238725
30
0
10
-76.145769892068827
20
-163.70982962138891
30
0
0
LINE
5
832
100
AcDbEntity
8
0
100
AcDbLine
10
-76.145769892068827
20
-163.70982962138891
30
0
11
-76.145769892068827
21
-163.73522060401677
31
0
0
SPLINE
5
833
100
AcDbEntity
8
0
100
AcDbSpline
70
0
71
3
72
9
73
5
74
0
42
0.000000001
43
0.0000000001
44
0.0000000001
40
0
40
0
40
0
40
0
40
0.096320664143080173
40
0.18530966106512797
40
0.18530966106512797
40
0.18530966106512797
40
0.18530966106512797
10
-76.145769892068827
20
-163.73522060401677
30
0
10
-75.824088424542623
20
-163.7942356526782
30
0
10
-75.205211008688579
20
-163.90777368485942
30
0
10
-74.719232403476113
20
-164.30579962057033
30
0
10
-74.485856829019511
20
-164.49693875797033
30
0
0
SPLINE
5
834
100
AcDbEntity
8
0
100
AcDbSpline
70
0
71
3
72
9
73
5
74
0
42
0.000000001
43
0.0000000001
44
0.0000000001
40
0
40
0
40
0
40
0
40
0.085825878303649086
40
0.17499146045791603
40
0.17499146045791603
40
0.17499146045791603
40
0.17499146045791603
10
-74.485856829019511
20
-164.49693875797033
30
0
10
-74.301661922841049
20
-164.72496019033406
30
0
10
-73.926104616837847
20
-165.18987595063507
30
0
10
-73.878515576810202
20
-165.78629822985576
30
0
10
-73.854266939493144
20
-166.09020071513891
30
0
0
SPLINE
5
835
100
AcDbEntity
8
0
100
AcDbSpline
70
0
71
3
72
9
73
5
74
0
42
0.000000001
43
0.0000000001
44
0.0000000001
40
0
40
0
40
0
40
0
40
0.12254288181339422
40
0.23960292888257534
40
0.23960292888257534
40
0.23960292888257534
40
0.23960292888257534
10
-73.854266939493144
20
-166.09020071513891
30
0
10
-73.890180892158938
20
-166.5105948706564
30
0
10
-73.960401929228851
20
-167.33257383391026
30
0
10
-74.52874603452166
20
-167.92863040636882
30
0
10
-74.806415376993144
20
-168.21983891017675
30
0
0
SPLINE
5
836
100
AcDbEntity
8
0
100
AcDbSpline
70
0
71
3
72
9
73
5
74
0
42
0.000000001
43
0.0000000001
44
0.0000000001
40
0
40
0
40
0
40
0
40
0.12730989139639554
40
0.27620948587024213
40
0.27620948587024213
40
0.27620948587024213
40
0.27620948587024213
10
-74.806415376993144
20
-168.21983891017675
30
0
10
-75.171604165363007
20
-168.44996484062787
30
0
10
-75.963911867261416
20
-168.94924234560511
30
0
10
-76.902810809654454
20
-168.9887985485183
30
0
10
-77.408954439493144
20
-169.01012259013891
30
0
0
LINE
5
837
100
AcDbEntity
8
0
100
AcDbLine
10
-77.408954439493158
20
-169.01012259013893
30
0
11
-81.084245977731669
21
-169.01012259013891
31
0
0
LINE
5
838
100
AcDbEntity
8
0
100
AcDbLine
10
-78.989519415231669
20
-160.73912697322606
30
0
11
-78.989519415231669
21
-163.17027884013891
31
0
0
LINE
5
839
100
AcDbEntity
8
0
100
AcDbLine
10
-78.989519415231669
20
-163.17027884013891
30
0
11
-77.992936907144511
21
-163.17027884013891
31
0
0
SPLINE
5
840
100
AcDbEntity
8
0
100
AcDbSpline
70
0
71
3
72
9
73
5
74
0
42
0.000000001
43
0.0000000001
44
0.0000000001
40
0
40
0
40
0
40
0
40
0.064681396639060335
40
0.11990696577754527
40
0.11990696577754527
40
0.11990696577754527
40
0.11990696577754527
10
-77.992936907144511
20
-163.17027884013891
30
0
10
-77.773060445202717
20
-163.16108048363961
30
0
10
-77.365451445284805
20
-163.14402848607489
30
0
10
-77.021478323541658
20
-162.92731664573347
30
0
10
-76.863054571481669
20
-162.82750564105748
30
0
0
SPLINE
5
841
100
AcDbEntity
8
0
100
AcDbSpline
70
0
71
3
72
9
73
5
74
0
42
0.000000001
43
0.0000000001
44
0.0000000001
40
0
40
0
40
0
40
0
40
0.051447861060660662
40
0.10715962030383583
40
0.10715962030383583
40
0.10715962030383583
40
0.10715962030383583
10
-76.863054571481669
20
-162.82750564105748
30
0
10
-76.742765942560496
20
-162.69806944203037
30
0
10
-76.492219398227718
20
-162.42846962475198
30
0
10
-76.464742183794783
20
-162.06037821919199
30
0
10
-76.450456915231669
20
-161.86900930888891
30
0
0
SPLINE
5
842
100
AcDbEntity
8
0
100
AcDbSpline
70
0
71
3
72
9
73
5
74
0
42
0.000000001
43
0.0000000001
44
0.0000000001
40
0
40
0
40
0
40
0
40
0.094251976262682946
40
0.22121342963592616
40
0.22121342963592616
40
0.22121342963592616
40
0.22121342963592616
10
-76.450456915231669
20
-161.86900930888891
30
0
10
-76.55203650741349
20
-161.54125373000278
30
0
10
-76.790448165806012
20
-160.77199733281446
30
0
10
-77.623012356835957
20
-160.75111310097361
30
0
10
-78.100847540231669
20
-160.73912697322606
30
0
0
LINE
5
843
100
AcDbEntity
8
0
100
AcDbLine
10
-78.100847540231669
20
-160.73912697322606
30
0
11
-78.989519415231669
21
-160.73912697322606
31
0
0
LINE
5
844
100
AcDbEntity
8
0
100
AcDbLine
10
-78.989519415231669
20
-164.75084500797033
30
0
11
-78.989519415231669
21
-167.44859891422033
31
0
0
LINE
5
845
100
AcDbEntity
8
0
100
AcDbLine
10
-78.989519415231669
20
-167.44859891422033
30
0
11
-77.745379743905985
21
-167.44859891422033
31
0
0
SPLINE
5
846
100
AcDbEntity
8
0
100
AcDbSpline
70
0
71
3
72
9
73
5
74
0
42
0.000000001
43
0.0000000001
44
0.0000000001
40
0
40
0
40
0
40
0
40
0.071293702052175917
40
0.1314098181490965
40
0.1314098181490965
40
0.1314098181490965
40
0.1314098181490965
10
-77.745379743905985
20
-167.44859891422033
30
0
10
-77.503059905364921
20
-167.43920554555305
30
0
10
-77.056411674174797
20
-167.42189152155316
30
0
10
-76.677674507446028
20
-167.18761151971378
30
0
10
-76.504413423868144
20
-167.08043532855748
30
0
0
SPLINE
5
847
100
AcDbEntity
8
0
100
AcDbSpline
70
0
71
3
72
9
73
5
74
0
42
0.000000001
43
0.0000000001
44
0.0000000001
40
0
40
0
40
0
40
0
40
0.055306053053620144
40
0.11461071595829297
40
0.11461071595829297
40
0.11461071595829297
40
0.11461071595829297
10
-76.504413423868144
20
-167.08043532855748
30
0
10
-76.373933048795351
20
-166.94223895799919
30
0
10
-76.103538609490442
20
-166.65585466373091
30
0
10
-76.072804790614441
20
-166.26217153106177
30
0
10
-76.056901750894511
20
-166.05846243388891
30
0
0
SPLINE
5
848
100
AcDbEntity
8
0
100
AcDbSpline
70
0
71
3
72
9
73
5
74
0
42
0.000000001
43
0.0000000001
44
0.0000000001
40
0
40
0
40
0
40
0
40
0.056330685212670428
40
0.109367859162619
40
0.109367859162619
40
0.109367859162619
40
0.109367859162619
10
-76.056901750894511
20
-166.05846243388891
30
0
10
-76.073081755999411
20
-165.86459236573103
30
0
10
-76.104495762643992
20
-165.48818731704245
30
0
10
-76.371672304083532
20
-165.2224744087907
30
0
10
-76.501237688394511
20
-165.0936188030982
30
0
0
SPLINE
5
849
100
AcDbEntity
8
0
100
AcDbSpline
70
0
71
3
72
9
73
5
74
0
42
0.000000001
43
0.0000000001
44
0.0000000001
40
0
40
0
40
0
40
0
40
0.05962334477174442
40
0.13265003927420296
40
0.13265003927420296
40
0.13265003927420296
40
0.13265003927420296
10
-76.501237688394511
20
-165.0936188030982
30
0
10
-76.676502022813921
20
-164.99390805357652
30
0
10
-77.066430178188355
20
-164.77207154154013
30
0
10
-77.516596184608431
20
-164.7583816094803
30
0
10
-77.764422235818827
20
-164.75084500797033
30
0
0
LINE
5
850
100
AcDbEntity
8
0
100
AcDbLine
10
-77.764422235818827
20
-164.75084500797027
30
0
11
-78.989519415231669
21
-164.75084500797033
31
0
0
SPLINE
5
851
100
AcDbEntity
8
0
100
AcDbSpline
70
0
71
3
72
9
73
5
74
0
42
0.000000001
43
0.0000000001
44
0.0000000001
40
0
40
0
40
0
40
0
40
0.34538542968619573
40
0.67110402552948056
40
0.67110402552948056
40
0.67110402552948056
40
0.67110402552948056
10
39.654524760512388
20
-163.24645178802251
30
0
10
39.505066073682841
20
-164.52914729567158
30
0
10
39.214659131870654
20
-167.0214994469884
30
0
10
36.758651364999345
20
-167.4415212144819
30
0
10
35.566634373930967
20
-167.6453776884818
30
0
0
SPLINE
5
852
100
AcDbEntity
8
0
100
AcDbSpline
70
0
71
3
72
9
73
5
74
0
42
0.000000001
43
0.0000000001
44
0.0000000001
40
0
40
0
40
0
40
0
40
0.31489672758582377
40
0.65106450243788938
40
0.65106450243788938
40
0.65106450243788938
40
0.65106450243788938
10
35.566634373930967
20
-167.6453776884818
30
0
10
34.415403869046727
20
-167.44462619165947
30
0
10
32.035178067400388
20
-167.02956257891788
30
0
10
31.76031416975249
20
-164.61001054822361
30
0
10
31.618392156628644
20
-163.3607097197318
30
0
0
LINE
5
853
100
AcDbEntity
8
0
100
AcDbLine
10
31.618392156628651
20
-163.3607097197318
30
0
11
31.618392156628644
21
-157.64147179610967
31
0
0
LINE
5
854
100
AcDbEntity
8
0
100
AcDbLine
10
31.618392156628644
20
-157.64147179610967
30
0
11
33.719466166762388
21
-157.64147179610967
31
0
0
LINE
5
855
100
AcDbEntity
8
0
100
AcDbLine
10
33.719466166762388
20
-157.64147179610967
30
0
11
33.719466166762388
21
-163.37340491302251
31
0
0
SPLINE
5
856
100
AcDbEntity
8
0
100
AcDbSpline
70
0
71
3
72
9
73
5
74
0
42
0.000000001
43
0.0000000001
44
0.0000000001
40
0
40
0
40
0
40
0
40
0.19049226268202962
40
0.34814830269175023
40
0.34814830269175023
40
0.34814830269175023
40
0.34814830269175023
10
33.719466166762388
20
-163.37340491302251
30
0
10
33.764946917082824
20
-164.08788612894992
30
0
10
33.848068645001192
20
-165.393689415278
30
0
10
35.092135897801732
20
-165.69396877296651
30
0
10
35.655501323012388
20
-165.82994776256322
30
0
0
SPLINE
5
857
100
AcDbEntity
8
0
100
AcDbSpline
70
0
71
3
72
9
73
5
74
0
42
0.000000001
43
0.0000000001
44
0.0000000001
40
0
40
0
40
0
40
0
40
0.15460234662332234
40
0.33844890261909621
40
0.33844890261909621
40
0.33844890261909621
40
0.33844890261909621
10
35.655501323012388
20
-165.82994776256322
30
0
10
36.209830672309707
20
-165.70126505989307
30
0
10
37.423344982130246
20
-165.41955834291232
30
0
10
37.511767043651957
20
-164.15123167285793
30
0
10
37.559798198012388
20
-163.46227245815038
30
0
0
LINE
5
858
100
AcDbEntity
8
0
100
AcDbLine
10
37.559798198012388
20
-163.46227245815041
30
0
11
37.559798198012388
21
-157.64147179610967
31
0
0
LINE
5
859
100
AcDbEntity
8
0
100
AcDbLine
10
37.559798198012388
20
-157.64147179610967
30
0
11
39.654524760512388
21
-157.64147179610967
31
0
0
LINE
5
860
100
AcDbEntity
8
0
100
AcDbLine
10
39.654524760512388
20
-157.64147179610967
30
0
11
39.654524760512388
21
-163.24645178802251
31
0
0
SPLINE
5
861
100
AcDbEntity
8
0
100
AcDbSpline
70
0
71
3
72
9
73
5
74
0
42
0.000000001
43
0.0000000001
44
0.0000000001
40
0
40
0
40
0
40
0
40
0.14670385300030908
40
0.2917850989550923
40
0.2917850989550923
40
0.2917850989550923
40
0.2917850989550923
10
41.362045245436704
20
-164.99840455539464
30
0
10
41.769789688794631
20
-165.28536896534706
30
0
10
42.580768748447078
20
-165.85612383675721
30
0
10
43.568620153333612
20
-165.94039166519474
30
0
10
44.059799151686704
20
-165.98229127414464
30
0
0
SPLINE
5
862
100
AcDbEntity
8
0
100
AcDbSpline
70
0
71
3
72
9
73
5
74
0
42
0.000000001
43
0.0000000001
44
0.0000000001
40
0
40
0
40
0
40
0
40
0.075422811360483275
40
0.13359598750209556
40
0.13359598750209556
40
0.13359598750209556
40
0.13359598750209556
10
44.059799151686704
20
-165.98229127414464
30
0
10
44.315001275338339
20
-165.97775700273309
30
0
10
44.76703931405477
20
-165.96972547412918
30
0
10
45.172025351182754
20
-165.77285220053528
30
0
10
45.348372893599546
20
-165.68712549693822
30
0
0
SPLINE
5
863
100
AcDbEntity
8
0
100
AcDbSpline
70
0
71
3
72
9
73
5
74
0
42
0.000000001
43
0.0000000001
44
0.0000000001
40
0
40
0
40
0
40
0
40
0.046745950138044556
40
0.090238528608022936
40
0.090238528608022936
40
0.090238528608022936
40
0.090238528608022936
10
45.348372893599546
20
-165.68712549693822
30
0
10
45.474219628401862
20
-165.58470174404312
30
0
10
45.717154559559539
20
-165.38698261054662
30
0
10
45.759570753077767
20
-165.07766364111717
30
0
10
45.780014233855283
20
-164.92858009822606
30
0
0
SPLINE
5
864
100
AcDbEntity
8
0
100
AcDbSpline
70
0
71
3
72
9
73
5
74
0
42
0.000000001
43
0.0000000001
44
0.0000000001
40
0
40
0
40
0
40
0
40
0.039812576482120186
40
0.084586359579407078
40
0.084586359579407078
40
0.084586359579407078
40
0.084586359579407078
10
45.780014233855283
20
-164.92858009822606
30
0
10
45.762659665463936
20
-164.79405290910182
30
0
10
45.725787905532599
20
-164.50823455224219
30
0
10
45.537111318638992
20
-164.2891672978445
30
0
10
45.437239842680967
20
-164.17320924289464
30
0
0
SPLINE
5
865
100
AcDbEntity
8
0
100
AcDbSpline
70
0
71
3
72
9
73
5
74
0
42
0.000000001
43
0.0000000001
44
0.0000000001
40
0
40
0
40
0
40
0
40
0.075130839582970704
40
0.20563890640902996
40
0.20563890640902996
40
0.20563890640902996
40
0.20563890640902996
10
45.437239842680967
20
-164.17320924289464
30
0
10
45.232932392038059
20
-164.02718633924977
30
0
10
44.673727131526817
20
-163.62751038217436
30
0
10
44.034097003401357
20
-163.3710973277451
30
0
10
43.628157811430967
20
-163.20836561210393
30
0
0
SPLINE
5
866
100
AcDbEntity
8
0
100
AcDbSpline
70
0
71
3
72
9
73
5
74
0
42
0.000000001
43
0.0000000001
44
0.0000000001
40
0
40
0
40
0
40
0
40
0.2103757333931412
40
0.3845799361553085
40
0.3845799361553085
40
0.3845799361553085
40
0.3845799361553085
10
43.628157811430967
20
-163.20836561210393
30
0
10
42.957975146176544
20
-162.8800965780982
30
0
10
41.732839516420754
20
-162.28000034977623
30
0
10
41.451429925107732
20
-160.96174785356288
30
0
10
41.323959069518125
20
-160.36461549289464
30
0
0
SPLINE
5
867
100
AcDbEntity
8
0
100
AcDbSpline
70
0
71
3
72
9
73
5
74
0
42
0.000000001
43
0.0000000001
44
0.0000000001
40
0
40
0
40
0
40
0
40
0.12456177654009849
40
0.24474815103114339
40
0.24474815103114339
40
0.24474815103114339
40
0.24474815103114339
10
41.323959069518125
20
-160.36461549289464
30
0
10
41.364270542210946
20
-159.93546606398502
30
0
10
41.443477492215649
20
-159.09224166434035
30
0
10
42.063620629920599
20
-158.51730601433158
30
0
10
42.368148999480283
20
-158.2349772978568
30
0
0
SPLINE
5
868
100
AcDbEntity
8
0
100
AcDbSpline
70
0
71
3
72
9
73
5
74
0
42
0.000000001
43
0.0000000001
44
0.0000000001
40
0
40
0
40
0
40
0
40
0.13399625822837871
40
0.29027196790434356
40
0.29027196790434356
40
0.29027196790434356
40
0.29027196790434356
10
42.368148999480283
20
-158.2349772978568
30
0
10
42.763556169536855
20
-158.01408098043126
30
0
10
43.620114545817678
20
-157.53556009029833
30
0
10
44.603253538768598
20
-157.49712503789308
30
0
10
45.132552819518125
20
-157.47643249519109
30
0
0
SPLINE
5
869
100
AcDbEntity
8
0
100
AcDbSpline
70
0
71
3
72
9
73
5
74
0
42
0.000000001
43
0.0000000001
44
0.0000000001
40
0
40
0
40
0
40
0
40
0.13283769116523647
40
0.24572621115941209
40
0.24572621115941209
40
0.24572621115941209
40
0.24572621115941209
10
45.132552819518125
20
-157.47643249519109
30
0
10
45.577710224707658
20
-157.48629793829605
30
0
10
46.401172613938058
20
-157.50454726146876
30
0
10
47.189051328246862
20
-157.74190157156272
30
0
10
47.551008897093809
20
-157.85094397552251
30
0
0
LINE
5
870
100
AcDbEntity
8
0
100
AcDbLine
10
47.551008897093809
20
-157.85094397552251
30
0
11
47.551008897093809
21
-159.81871741302251
31
0
0
SPLINE
5
871
100
AcDbEntity
8
0
100
AcDbSpline
70
0
71
3
72
9
73
5
74
0
42
0.000000001
43
0.0000000001
44
0.0000000001
40
0
40
0
40
0
40
0
40
0.11869571358963467
40
0.24408445486912528
40
0.24408445486912528
40
0.24408445486912528
40
0.24408445486912528
10
47.551008897093809
20
-159.81871741302251
30
0
10
47.201153244048456
20
-159.62251015247836
30
0
10
46.481714236742022
20
-159.21903187358404
30
0
10
45.657515224240051
20
-159.17069616957534
30
0
10
45.234115557936704
20
-159.14586561210393
30
0
0
SPLINE
5
872
100
AcDbEntity
8
0
100
AcDbSpline
70
0
71
3
72
9
73
5
74
0
42
0.000000001
43
0.0000000001
44
0.0000000001
40
0
40
0
40
0
40
0
40
0.070022551736478547
40
0.12813548931745039
40
0.12813548931745039
40
0.12813548931745039
40
0.12813548931745039
10
45.234115557936704
20
-159.14586561210393
30
0
10
44.99783331675755
20
-159.15258700392476
30
0
10
44.565456320494178
20
-159.16488659610616
30
0
10
44.173902789747189
20
-159.34613507136876
30
0
10
43.996322589186704
20
-159.42833619601964
30
0
0
SPLINE
5
873
100
AcDbEntity
8
0
100
AcDbSpline
70
0
71
3
72
9
73
5
74
0
42
0.000000001
43
0.0000000001
44
0.0000000001
40
0
40
0
40
0
40
0
40
0.047984999509470161
40
0.092293542560342418
40
0.092293542560342418
40
0.092293542560342418
40
0.092293542560342418
10
43.996322589186704
20
-159.42833619601964
30
0
10
43.861234168152158
20
-159.52716351940074
30
0
10
43.60140736678477
20
-159.71724633423545
30
0
10
43.555150225802763
20
-160.03454929997918
30
0
10
43.532942967680967
20
-160.18688099868535
30
0
0
SPLINE
5
874
100
AcDbEntity
8
0
100
AcDbSpline
70
0
71
3
72
9
73
5
74
0
42
0.000000001
43
0.0000000001
44
0.0000000001
40
0
40
0
40
0
40
0
40
0.037429047849707534
40
0.078576451478868187
40
0.078576451478868187
40
0.078576451478868187
40
0.078576451478868187
10
43.532942967680967
20
-160.18688099868535
30
0
10
43.548500770910763
20
-160.31361043687511
30
0
10
43.581161953624068
20
-160.57965913762877
30
0
10
43.75781796205473
20
-160.78222259907736
30
0
10
43.850325780180967
20
-160.88829713351964
30
0
0
SPLINE
5
875
100
AcDbEntity
8
0
100
AcDbSpline
70
0
71
3
72
9
73
5
74
0
42
0.000000001
43
0.0000000001
44
0.0000000001
40
0
40
0
40
0
40
0
40
0.066728753503389401
40
0.17961782684297747
40
0.17961782684297747
40
0.17961782684297747
40
0.17961782684297747
10
43.850325780180967
20
-160.88829713351964
30
0
10
44.030744671334254
20
-161.01934628506064
30
0
10
44.5163891266698
20
-161.37209922249139
30
0
10
45.070156690240324
20
-161.60707269675854
30
0
10
45.418197350768125
20
-161.75475256927251
30
0
0
SPLINE
5
876
100
AcDbEntity
8
0
100
AcDbSpline
70
0
71
3
72
9
73
5
74
0
42
0.000000001
43
0.0000000001
44
0.0000000001
40
0
40
0
40
0
40
0
40
0.13954640878351957
40
0.24295567028341747
40
0.24295567028341747
40
0.24295567028341747
40
0.24295567028341747
10
45.418197350768125
20
-161.75475256927251
30
0
10
45.848393819956911
20
-161.94392760615582
30
0
10
46.597382435546884
20
-162.27328862868259
30
0
10
47.183927106392154
20
-162.84014241692233
30
0
10
47.433578210143125
20
-163.08141248710393
30
0
0
SPLINE
5
877
100
AcDbEntity
8
0
100
AcDbSpline
70
0
71
3
72
9
73
5
74
0
42
0.000000001
43
0.0000000001
44
0.0000000001
40
0
40
0
40
0
40
0
40
0.086870198814245861
40
0.17773237301467526
40
0.17773237301467526
40
0.17773237301467526
40
0.17773237301467526
10
47.433578210143125
20
-163.08141248710393
30
0
10
47.593701495398342
20
-163.32873245551332
30
0
10
47.921306264948491
20
-163.8347375698024
30
0
10
47.961898339128822
20
-164.43673763305344
30
0
10
47.982650237349546
20
-164.74449830539464
30
0
0
SPLINE
5
878
100
AcDbEntity
8
0
100
AcDbSpline
70
0
71
3
72
9
73
5
74
0
42
0.000000001
43
0.0000000001
44
0.0000000001
40
0
40
0
40
0
40
0
40
0.12722653571141923
40
0.24535872799469299
40
0.24535872799469299
40
0.24535872799469299
40
0.24535872799469299
10
47.982650237349546
20
-164.74449830539464
30
0
10
47.947415343531091
20
-165.18328400946612
30
0
10
47.87946419890563
20
-166.02949035793915
30
0
10
47.272130919221169
20
-166.6189134935837
30
0
10
46.979719834593809
20
-166.90270143039464
30
0
0
SPLINE
5
879
100
AcDbEntity
8
0
100
AcDbSpline
70
0
71
3
72
9
73
5
74
0
42
0.000000001
43
0.0000000001
44
0.0000000001
40
0
40
0
40
0
40
0
40
0.13356738753894487
40
0.29822833286194728
40
0.29822833286194728
40
0.29822833286194728
40
0.29822833286194728
10
46.979719834593809
20
-166.90270143039464
30
0
10
46.583504526652192
20
-167.11870637655667
30
0
10
45.698837745943024
20
-167.60100071629631
30
0
10
44.687831144446207
20
-167.62959172294961
30
0
10
44.129623608855283
20
-167.6453776884818
30
0
0
SPLINE
5
880
100
AcDbEntity
8
0
100
AcDbSpline
70
0
71
3
72
9
73
5
74
0
42
0.000000001
43
0.0000000001
44
0.0000000001
40
0
40
0
40
0
40
0
40
0.15421837557625059
40
0.28399068510232561
40
0.28399068510232561
40
0.28399068510232561
40
0.28399068510232561
10
44.129623608855283
20
-167.6453776884818
30
0
10
43.610998184322312
20
-167.63157044868831
30
0
10
42.655957716062566
20
-167.60614463627346
30
0
10
41.767866964192663
20
-167.2583892316982
30
0
10
41.362045245436704
20
-167.09947901256322
30
0
0
LINE
5
881
100
AcDbEntity
8
0
100
AcDbLine
10
41.362045245436704
20
-167.09947901256322
30
0
11
41.362045245436704
21
-164.99840455539464
31
0
0
LINE
5
882
100
AcDbEntity
8
0
100
AcDbLine
10
49.63303967025665
20
-167.47399049289464
30
0
11
49.63303967025665
21
-157.64147120006322
31
0
0
LINE
5
883
100
AcDbEntity
8
0
100
AcDbLine
10
49.63303967025665
20
-157.64147120006322
30
0
11
53.12425060775665
21
-157.64147120006322
31
0
0
SPLINE
5
884
100
AcDbEntity
8
0
100
AcDbSpline
70
0
71
3
72
9
73
5
74
0
42
0.000000001
43
0.0000000001
44
0.0000000001
40
0
40
0
40
0
40
0
40
0.14300139383803581
40
0.25785706226313482
40
0.25785706226313482
40
0.25785706226313482
40
0.25785706226313482
10
53.12425060775665
20
-157.64147120006322
30
0
10
53.608371977539321
20
-157.65373858077311
30
0
10
54.481329302223536
20
-157.67585885993
30
0
10
55.255155812726635
20
-158.07365747434648
30
0
10
55.59983654525665
20
-158.2508464384818
30
0
0
SPLINE
5
885
100
AcDbEntity
8
0
100
AcDbSpline
70
0
71
3
72
9
73
5
74
0
42
0.000000001
43
0.0000000001
44
0.0000000001
40
0
40
0
40
0
40
0
40
0.097654599637796269
40
0.19624842677242527
40
0.19624842677242527
40
0.19624842677242527
40
0.19624842677242527
10
55.59983654525665
20
-158.2508464384818
30
0
10
55.853477093739237
20
-158.47439678852101
30
0
10
56.363197667987933
20
-158.92364756280446
30
0
10
56.433930334810029
20
-159.59968579690582
30
0
10
56.469465928343809
20
-159.93932264335393
30
0
0
SPLINE
5
886
100
AcDbEntity
8
0
100
AcDbSpline
70
0
71
3
72
9
73
5
74
0
42
0.000000001
43
0.0000000001
44
0.0000000001
40
0
40
0
40
0
40
0
40
0.076263386448548062
40
0.15301922004315316
40
0.15301922004315316
40
0.15301922004315316
40
0.15301922004315316
10
56.469465928343809
20
-159.93932264335393
30
0
10
56.446696640859827
20
-160.19804627050192
30
0
10
56.401011040285489
20
-160.7171641523131
30
0
10
56.087283657784823
20
-161.13337817217229
30
0
10
55.929915147093809
20
-161.34215491302251
30
0
0
SPLINE
5
887
100
AcDbEntity
8
0
100
AcDbSpline
70
0
71
3
72
9
73
5
74
0
42
0.000000001
43
0.0000000001
44
0.0000000001
40
0
40
0
40
0
40
0
40
0.079424666285802276
40
0.16096063409126143
40
0.16096063409126143
40
0.16096063409126143
40
0.16096063409126143
10
55.929915147093809
20
-161.34215491302251
30
0
10
55.736679163929317
20
-161.52804091128729
30
0
10
55.345070513444306
20
-161.90475421143162
30
0
10
54.831612331755899
20
-162.08326923312799
30
0
10
54.571515755919492
20
-162.17369752414464
30
0
0
LINE
5
888
100
AcDbEntity
8
0
100
AcDbLine
10
54.571515755919499
20
-162.17369752414459
30
0
11
54.571515755919492
21
-162.19908850677251
31
0
0
SPLINE
5
889
100
AcDbEntity
8
0
100
AcDbSpline
70
0
71
3
72
9
73
5
74
0
42
0.000000001
43
0.0000000001
44
0.0000000001
40
0
40
0
40
0
40
0
40
0.096320664143080173
40
0.18530966106512797
40
0.18530966106512797
40
0.18530966106512797
40
0.18530966106512797
10
54.571515755919492
20
-162.19908850677251
30
0
10
54.893197223445696
20
-162.25810355543393
30
0
10
55.512074639299755
20
-162.37164158761516
30
0
10
55.998053244512214
20
-162.76966752332606
30
0
10
56.231428818968809
20
-162.96080666072606
30
0
0
SPLINE
5
890
100
AcDbEntity
8
0
100
AcDbSpline
70
0
71
3
72
9
73
5
74
0
42
0.000000001
43
0.0000000001
44
0.0000000001
40
0
40
0
40
0
40
0
40
0.085826009892480903
40
0.17499159204674786
40
0.17499159204674786
40
0.17499159204674786
40
0.17499159204674786
10
56.231428818968809
20
-162.96080666072606
30
0
10
56.415624716262855
20
-163.18882797898738
30
0
10
56.791183749664768
20
-163.6537431434362
30
0
10
56.838772580295007
20
-164.25016604435592
30
0
10
56.863021092680967
20
-164.55406861789464
30
0
0
SPLINE
5
891
100
AcDbEntity
8
0
100
AcDbSpline
70
0
71
3
72
9
73
5
74
0
42
0.000000001
43
0.0000000001
44
0.0000000001
40
0
40
0
40
0
40
0
40
0.12254288181339422
40
0.23960292888257534
40
0.23960292888257534
40
0.23960292888257534
40
0.23960292888257534
10
56.863021092680967
20
-164.55406861789464
30
0
10
56.827107140015173
20
-164.97446277341214
30
0
10
56.756886102945273
20
-165.796441736666
30
0
10
56.188541997652457
20
-166.39249830912456
30
0
10
55.910872655180967
20
-166.68370681293248
30
0
0
SPLINE
5
892
100
AcDbEntity
8
0
100
AcDbSpline
70
0
71
3
72
9
73
5
74
0
42
0.000000001
43
0.0000000001
44
0.0000000001
40
0
40
0
40
0
40
0
40
0.12730989139639554
40
0.27620948587024213
40
0.27620948587024213
40
0.27620948587024213
40
0.27620948587024213
10
55.910872655180967
20
-166.68370681293248
30
0
10
55.545683866811117
20
-166.91383274338361
30
0
10
54.753376164912702
20
-167.41311024836085
30
0
10
53.814477222519663
20
-167.45266645127404
30
0
10
53.308333592680967
20
-167.47399049289464
30
0
0
LINE
5
893
100
AcDbEntity
8
0
100
AcDbLine
10
53.308333592680953
20
-167.47399049289467
30
0
11
49.63303967025665
21
-167.47399049289464
31
0
0
LINE
5
894
100
AcDbEntity
8
0
100
AcDbLine
10
51.72776623275665
20
-159.2029948759818
30
0
11
51.72776623275665
21
-161.63414674289464
31
0
0
LINE
5
895
100
AcDbEntity
8
0
100
AcDbLine
10
51.72776623275665
20
-161.63414674289464
30
0
11
52.724348740843809
21
-161.63414674289464
31
0
0
SPLINE
5
896
100
AcDbEntity
8
0
100
AcDbSpline
70
0
71
3
72
9
73
5
74
0
42
0.000000001
43
0.0000000001
44
0.0000000001
40
0
40
0
40
0
40
0
40
0.064681632955997062
40
0.11990699108391015
40
0.11990699108391015
40
0.11990699108391015
40
0.11990699108391015
10
52.724348740843809
20
-161.63414674289464
30
0
10
52.94422609947928
20
-161.62494865539884
30
0
10
53.35183535850021
20
-161.6078972152149
30
0
10
53.695808126242461
20
-161.39118453354632
30
0
10
53.85423107650665
20
-161.29137354381322
30
0
0
SPLINE
5
897
100
AcDbEntity
8
0
100
AcDbSpline
70
0
71
3
72
9
73
5
74
0
42
0.000000001
43
0.0000000001
44
0.0000000001
40
0
40
0
40
0
40
0
40
0.051447861060660662
40
0.10715962030383583
40
0.10715962030383583
40
0.10715962030383583
40
0.10715962030383583
10
53.85423107650665
20
-161.29137354381322
30
0
10
53.974519705427824
20
-161.16193734478611
30
0
10
54.225066249760602
20
-160.89233752750772
30
0
10
54.252543464193543
20
-160.52424612194773
30
0
10
54.26682873275665
20
-160.33287721164464
30
0
0
SPLINE
5
898
100
AcDbEntity
8
0
100
AcDbSpline
70
0
71
3
72
9
73
5
74
0
42
0.000000001
43
0.0000000001
44
0.0000000001
40
0
40
0
40
0
40
0
40
0.094251976262682946
40
0.22121342963592616
40
0.22121342963592616
40
0.22121342963592616
40
0.22121342963592616
10
54.26682873275665
20
-160.33287721164464
30
0
10
54.165249140574829
20
-160.00512163275852
30
0
10
53.926837482182307
20
-159.23586523557017
30
0
10
53.094273291152376
20
-159.21498100372935
30
0
10
52.61643810775665
20
-159.2029948759818
30
0
0
LINE
5
899
100
AcDbEntity
8
0
100
AcDbLine
10
52.61643810775665
20
-159.2029948759818
30
0
11
51.72776623275665
21
-159.2029948759818
31
0
0
LINE
5
900
100
AcDbEntity
8
0
100
AcDbLine
10
51.72776623275665
20
-163.21471291072606
30
0
11
51.72776623275665
21
-165.91246681697606
31
0
0
LINE
5
901
100
AcDbEntity
8
0
100
AcDbLine
10
51.72776623275665
20
-165.91246681697606
30
0
11
52.971905904082334
21
-165.91246681697606
31
0
0
SPLINE
5
902
100
AcDbEntity
8
0
100
AcDbSpline
70
0
71
3
72
9
73
5
74
0
42
0.000000001
43
0.0000000001
44
0.0000000001
40
0
40
0
40
0
40
0
40
0.071293702052175917
40
0.13141002993014156
40
0.13141002993014156
40
0.13141002993014156
40
0.13141002993014156
10
52.971905904082334
20
-165.91246681697606
30
0
10
53.214225677947979
20
-165.90307330969199
30
0
10
53.660874509748666
20
-165.8857590022873
30
0
10
54.039612717392828
20
-165.65147943055084
30
0
10
54.212874608305967
20
-165.54430323131322
30
0
0
SPLINE
5
903
100
AcDbEntity
8
0
100
AcDbSpline
70
0
71
3
72
9
73
5
74
0
42
0.000000001
43
0.0000000001
44
0.0000000001
40
0
40
0
40
0
40
0
40
0.055305908365762414
40
0.11461057127043525
40
0.11461057127043525
40
0.11461057127043525
40
0.11461057127043525
10
54.212874608305967
20
-165.54430323131322
30
0
10
54.343353993670284
20
-165.40610673520354
30
0
10
54.613746748034231
20
-165.11972179307489
30
0
10
54.644480745096047
20
-164.72603933956071
30
0
10
54.660383897093809
20
-164.52233033664464
30
0
0
SPLINE
5
904
100
AcDbEntity
8
0
100
AcDbSpline
70
0
71
3
72
9
73
5
74
0
42
0.000000001
43
0.0000000001
44
0.0000000001
40
0
40
0
40
0
40
0
40
0.056330685212670428
40
0.109367859162619
40
0.109367859162619
40
0.109367859162619
40
0.109367859162619
10
54.660383897093809
20
-164.52233033664464
30
0
10
54.644203891988909
20
-164.32846026848677
30
0
10
54.612789885344341
20
-163.95205521979818
30
0
10
54.345613343904802
20
-163.68634231154644
30
0
10
54.216047959593809
20
-163.55748670585393
30
0
0
SPLINE
5
905
100
AcDbEntity
8
0
100
AcDbSpline
70
0
71
3
72
9
73
5
74
0
42
0.000000001
43
0.0000000001
44
0.0000000001
40
0
40
0
40
0
40
0
40
0.059623559889508744
40
0.13265001762059381
40
0.13265001762059381
40
0.13265001762059381
40
0.13265001762059381
10
54.216047959593809
20
-163.55748670585393
30
0
10
54.040782825167298
20
-163.45777593937464
30
0
10
53.650854360428951
20
-163.23594022619426
30
0
10
53.2006885773596
20
-163.22224977488676
30
0
10
52.952863412169492
20
-163.21471291072606
30
0
0
LINE
5
906
100
AcDbEntity
8
0
100
AcDbLine
10
52.952863412169492
20
-163.21471291072601
30
0
11
51.72776623275665
21
-163.21471291072606
31
0
0
LINE
5
907
100
AcDbEntity
8
0
100
AcDbLine
10
61.522199349669492
20
-161.98326843269109
30
0
11
67.235089974669492
21
-161.98326843269109
31
0
0
SPLINE
5
908
100
AcDbEntity
8
0
100
AcDbSpline
70
0
71
3
72
9
73
5
74
0
42
0.000000001
43
0.0000000001
44
0.0000000001
40
0
40
0
40
0
40
0
40
0.046250040326004334
40
0.084088168341915848
40
0.084088168341915848
40
0.084088168341915848
40
0.084088168341915848
10
67.235089974669492
20
-161.98326843269109
30
0
10
67.391204262426527
20
-161.97917915979843
30
0
10
67.675038923260558
20
-161.971744366986
30
0
10
67.93197361549899
20
-161.85273711620255
30
0
10
68.047589497832334
20
-161.79918604381322
30
0
0
SPLINE
5
909
100
AcDbEntity
8
0
100
AcDbSpline
70
0
71
3
72
9
73
5
74
0
42
0.000000001
43
0.0000000001
44
0.0000000001
40
0
40
0
40
0
40
0
40
0.033188137016224764
40
0.066646199485285385
40
0.066646199485285385
40
0.066646199485285385
40
0.066646199485285385
10
68.047589497832334
20
-161.79918604381322
30
0
10
68.138098083034677
20
-161.73084927281408
30
0
10
68.319851377037821
20
-161.59361993481411
30
0
10
68.392152098575778
20
-161.37760301317564
30
0
10
68.428448872832334
20
-161.26915710456609
30
0
0
SPLINE
5
910
100
AcDbEntity
8
0
100
AcDbSpline
70
0
71
3
72
9
73
5
74
0
42
0.000000001
43
0.0000000001
44
0.0000000001
40
0
40
0
40
0
40
0
40
0.049756286921176479
40
0.12809689001085239
40
0.12809689001085239
40
0.12809689001085239
40
0.12809689001085239
10
68.428448872832334
20
-161.26915710456609
30
0
10
68.459647785362151
20
-161.10621558888943
30
0
10
68.539968965138314
20
-160.68672485307755
30
0
10
68.588933296106262
20
-160.26234132302932
30
0
10
68.618878560332334
20
-160.00279980190038
30
0
0
SPLINE
5
911
100
AcDbEntity
8
0
100
AcDbSpline
70
0
71
3
72
9
73
5
74
0
42
0.000000001
43
0.0000000001
44
0.0000000001
40
0
40
0
40
0
40
0
40
0.069755734106916961
40
0.16262749853523428
40
0.16262749853523428
40
0.16262749853523428
40
0.16262749853523428
10
68.618878560332334
20
-160.00279980190038
30
0
10
68.838407534073582
20
-160.07953734118382
30
0
10
69.350214173522446
20
-160.25844211822027
30
0
10
69.870555859907512
20
-160.4108696487873
30
0
10
70.16770763900665
20
-160.49791651256322
30
0
0
SPLINE
5
912
100
AcDbEntity
8
0
100
AcDbSpline
70
0
71
3
72
9
73
5
74
0
42
0.000000001
43
0.0000000001
44
0.0000000001
40
0
40
0
40
0
40
0
40
0.11877941704176037
40
0.18815846475626524
40
0.18815846475626524
40
0.18815846475626524
40
0.18815846475626524
10
70.16770763900665
20
-160.49791651256322
30
0
10
70.093857612342532
20
-160.88712312426264
30
0
10
69.976871791184266
20
-161.50366528581074
30
0
10
69.812531060700167
20
-162.10913622993584
30
0
10
69.751934247283017
20
-162.33238952644109
30
0
0
SPLINE
5
913
100
AcDbEntity
8
0
100
AcDbSpline
70
0
71
3
72
9
73
5
74
0
42
0.000000001
43
0.0000000001
44
0.0000000001
40
0
40
0
40
0
40
0
40
0.042134425356724639
40
0.08075108228302047
40
0.08075108228302047
40
0.08075108228302047
40
0.08075108228302047
10
69.751934247283017
20
-162.33238952644109
30
0
10
69.700615133237534
20
-162.4648653107929
30
0
10
69.602261495662191
20
-162.71875658549607
30
0
10
69.413660111088276
20
-162.91470738986706
30
0
10
69.323467450408017
20
-163.00841467864751
30
0
0
SPLINE
5
914
100
AcDbEntity
8
0
100
AcDbSpline
70
0
71
3
72
9
73
5
74
0
42
0.000000001
43
0.0000000001
44
0.0000000001
40
0
40
0
40
0
40
0
40
0.039413649196448741
40
0.083432957395668139
40
0.083432957395668139
40
0.083432957395668139
40
0.083432957395668139
10
69.323467450408017
20
-163.00841467864751
30
0
10
69.217465038367479
20
-163.08769150422674
30
0
10
68.993073364215846
20
-163.25550900262812
30
0
10
68.725262049598626
20
-163.33891897676764
30
0
10
68.583964543608701
20
-163.38292615897893
30
0
0
SPLINE
5
915
100
AcDbEntity
8
0
100
AcDbSpline
70
0
71
3
72
9
73
5
74
0
42
0.000000001
43
0.0000000001
44
0.0000000001
40
0
40
0
40
0
40
0
40
0.050296452496338198
40
0.10790525868450468
40
0.10790525868450468
40
0.10790525868450468
40
0.10790525868450468
10
68.583964543608701
20
-163.38292615897893
30
0
10
68.419805217359965
20
-163.41898422993444
30
0
10
68.067620248337875
20
-163.49634267732011
30
0
10
67.706944269520875
20
-163.50309889923079
30
0
10
67.514385419158017
20
-163.50670593269109
30
0
0
LINE
5
916
100
AcDbEntity
8
0
100
AcDbLine
10
67.514385419158017
20
-163.50670593269112
30
0
11
61.192120747832334
21
-163.50670593269109
31
0
0
SPLINE
5
917
100
AcDbEntity
8
0
100
AcDbSpline
70
0
71
3
72
9
73
5
74
0
42
0.000000001
43
0.0000000001
44
0.0000000001
40
0
40
0
40
0
40
0
40
0.19097182006171737
40
0.3674971511303482
40
0.3674971511303482
40
0.3674971511303482
40
0.3674971511303482
10
61.192120747832334
20
-163.50670593269109
30
0
10
60.481509093502943
20
-163.43002600857548
30
0
10
59.114041587345866
20
-163.28246678411892
30
0
10
58.871245582819007
20
-161.94173495022002
30
0
10
58.754619794158017
20
-161.2977214384818
30
0
0
LINE
5
918
100
AcDbEntity
8
0
100
AcDbLine
10
58.754619794158017
20
-161.2977214384818
30
0
11
58.754619794158017
21
-157.13365870006322
31
0
0
LINE
5
919
100
AcDbEntity
8
0
100
AcDbLine
10
58.754619794158017
20
-157.13365870006322
30
0
11
68.39036388900665
21
-157.13365870006322
31
0
0
LINE
5
920
100
AcDbEntity
8
0
100
AcDbLine
10
68.39036388900665
20
-157.13365870006322
30
0
11
68.39036388900665
21
-160.99303381927251
31
0
0
LINE
5
921
100
AcDbEntity
8
0
100
AcDbLine
10
68.39036388900665
20
-160.99303381927251
30
0
11
60.531963544158017
21
-160.99303381927251
31
0
0
LINE
5
922
100
AcDbEntity
8
0
100
AcDbLine
10
60.531963544158017
20
-160.99303381927251
30
0
11
60.531963544158017
21
-161.11998694427251
31
0
0
SPLINE
5
923
100
AcDbEntity
8
0
100
AcDbSpline
70
0
71
3
72
9
73
5
74
0
42
0.000000001
43
0.0000000001
44
0.0000000001
40
0
40
0
40
0
40
0
40
0.069317531157450027
40
0.14665745155454207
40
0.14665745155454207
40
0.14665745155454207
40
0.14665745155454207
10
60.531963544158017
20
-161.11998694427251
30
0
10
60.581549220554081
20
-161.37157342329408
30
0
10
60.686459317789634
20
-161.90386346944535
30
0
10
61.233642091273595
20
-161.95585215774528
30
0
10
61.522199349669492
20
-161.98326843269109
30
0
0
LWPOLYLINE
5
924
100
AcDbEntity
8
0
100
AcDbPolyline
90
4
70
1
43
0.0
10
60.531963544158017
20
-159.59654944427251
10
60.531963544158017
20
-158.64440100677251
10
66.61302013900665
20
-158.64440100677251
10
66.61302013900665
20
-159.59654944427251
0
LINE
5
925
100
AcDbEntity
8
0
100
AcDbLine
10
59.808332162169492
20
-166.3123698759818
30
0
11
60.176495747832334
21
-165.91881471164464
31
0
0
LINE
5
926
100
AcDbEntity
8
0
100
AcDbLine
10
60.176495747832334
20
-165.91881471164464
30
0
11
57.573956685332334
21
-165.91881471164464
31
0
0
LINE
5
927
100
AcDbEntity
8
0
100
AcDbLine
10
57.573956685332334
20
-165.91881471164464
30
0
11
57.573956685332334
21
-164.34459524638891
31
0
0
LINE
5
928
100
AcDbEntity
8
0
100
AcDbLine
10
57.573956685332334
20
-164.34459524638891
30
0
11
66.16868420150665
21
-164.34459524638891
31
0
0
LINE
5
929
100
AcDbEntity
8
0
100
AcDbLine
10
66.16868420150665
20
-164.34459524638891
30
0
11
66.16868420150665
21
-163.78600197322606
31
0
0
LINE
5
930
100
AcDbEntity
8
0
100
AcDbLine
10
66.16868420150665
20
-163.78600197322606
30
0
11
67.94602795150665
21
-163.78600197322606
31
0
0
LINE
5
931
100
AcDbEntity
8
0
100
AcDbLine
10
67.94602795150665
20
-163.78600197322606
30
0
11
67.94602795150665
21
-164.34459524638891
31
0
0
LINE
5
932
100
AcDbEntity
8
0
100
AcDbLine
10
67.94602795150665
20
-164.34459524638891
30
0
11
70.205792622832334
21
-164.34459524638891
31
0
0
LINE
5
933
100
AcDbEntity
8
0
100
AcDbLine
10
70.205792622832334
20
-164.34459524638891
30
0
11
70.205792622832334
21
-165.91881471164464
31
0
0
LINE
5
934
100
AcDbEntity
8
0
100
AcDbLine
10
70.205792622832334
20
-165.91881471164464
30
0
11
67.94602795150665
21
-165.91881471164464
31
0
0
LINE
5
935
100
AcDbEntity
8
0
100
AcDbLine
10
67.94602795150665
20
-165.91881471164464
30
0
11
67.94602795150665
21
-166.98522167690038
31
0
0
SPLINE
5
936
100
AcDbEntity
8
0
100
AcDbSpline
70
0
71
3
72
9
73
5
74
0
42
0.000000001
43
0.0000000001
44
0.0000000001
40
0
40
0
40
0
40
0
40
0.083777338236894774
40
0.15555329557561715
40
0.15555329557561715
40
0.15555329557561715
40
0.15555329557561715
10
67.94602795150665
20
-166.98522167690038
30
0
10
67.93299334499028
20
-167.27094440305558
30
0
10
67.908791382468877
20
-167.80145912946782
30
0
10
67.606337396135217
20
-168.23542027452717
30
0
10
67.466777997283017
20
-168.43566017635106
30
0
0
SPLINE
5
937
100
AcDbEntity
8
0
100
AcDbSpline
70
0
71
3
72
9
73
5
74
0
42
0.000000001
43
0.0000000001
44
0.0000000001
40
0
40
0
40
0
40
0
40
0.069898139015669339
40
0.14724815408498793
40
0.14724815408498793
40
0.14724815408498793
40
0.14724815408498793
10
67.466777997283017
20
-168.43566017635106
30
0
10
67.285311942190603
20
-168.58958551777755
30
0
10
66.903033643830582
20
-168.91384625935285
30
0
10
66.404942037180945
20
-168.98112743007428
30
0
10
66.143292622832334
20
-169.01647048480748
30
0
0
SPLINE
5
938
100
AcDbEntity
8
0
100
AcDbSpline
70
0
71
3
72
9
73
5
74
0
42
0.000000001
43
0.0000000001
44
0.0000000001
40
0
40
0
40
0
40
0
40
0.10294198409738543
40
0.24259967626668233
40
0.24259967626668233
40
0.24259967626668233
40
0.24259967626668233
10
66.143292622832334
20
-169.01647048480748
30
0
10
65.80059301616339
20
-169.03487924945895
30
0
10
64.992965162828483
20
-169.07826252387395
30
0
10
64.184117763116035
20
-169.07933160683581
30
0
10
63.718487458495176
20
-169.07994704730748
30
0
0
SPLINE
5
939
100
AcDbEntity
8
0
100
AcDbSpline
70
0
71
3
72
9
73
5
74
0
42
0.000000001
43
0.0000000001
44
0.0000000001
40
0
40
0
40
0
40
0
40
0.095376055457268766
40
0.17585429319067469
40
0.17585429319067469
40
0.17585429319067469
40
0.17585429319067469
10
63.718487458495176
20
-169.07994704730748
30
0
10
63.646464470724951
20
-168.7702152149073
30
0
10
63.513668544671091
20
-168.19913191518134
30
0
10
63.349350357066044
20
-167.63633494669531
30
0
10
63.274151520995176
20
-167.37877564914464
30
0
0
SPLINE
5
940
100
AcDbEntity
8
0
100
AcDbSpline
70
0
71
3
72
9
73
5
74
0
42
0.000000001
43
0.0000000001
44
0.0000000001
40
0
40
0
40
0
40
0
40
0.11059696739947622
40
0.1918692315267968
40
0.1918692315267968
40
0.1918692315267968
40
0.1918692315267968
10
63.274151520995176
20
-167.37877564914464
30
0
10
63.642203220309014
20
-167.40081789171001
30
0
10
64.280717985857706
20
-167.43905789269371
30
0
10
64.92025016252947
20
-167.45021995673238
30
0
10
65.191144185332334
20
-167.4549480009818
30
0
0
SPLINE
5
941
100
AcDbEntity
8
0
100
AcDbSpline
70
0
71
3
72
9
73
5
74
0
42
0.000000001
43
0.0000000001
44
0.0000000001
40
0
40
0
40
0
40
0
40
0.077784806394937622
40
0.15396260944223669
40
0.15396260944223669
40
0.15396260944223669
40
0.15396260944223669
10
65.191144185332334
20
-167.4549480009818
30
0
10
65.479447320947187
20
-167.41645086011161
30
0
10
66.050097363376693
20
-167.34025191408168
30
0
10
66.12943127455938
20
-166.77150770865831
30
0
10
66.16868420150665
20
-166.49010377414464
30
0
0
LINE
5
942
100
AcDbEntity
8
0
100
AcDbLine
10
66.168684201506636
20
-166.49010377414464
30
0
11
66.16868420150665
21
-165.91881471164464
31
0
0
LINE
5
943
100
AcDbEntity
8
0
100
AcDbLine
10
66.16868420150665
20
-165.91881471164464
30
0
11
61.611065106658017
21
-165.91881471164464
31
0
0
SPLINE
5
944
100
AcDbEntity
8
0
100
AcDbSpline
70
0
71
3
72
9
73
5
74
0
42
0.000000001
43
0.0000000001
44
0.0000000001
40
0
40
0
40
0
40
0
40
0.075873190279266756
40
0.1547866748597346
40
0.1547866748597346
40
0.1547866748597346
40
0.1547866748597346
10
61.611065106658017
20
-165.91881471164464
30
0
10
61.804432227400383
20
-166.081851220781
30
0
10
62.198914831028191
20
-166.41445723137673
30
0
10
62.583145816712062
20
-166.75885733490588
30
0
10
62.779034810332334
20
-166.93443971164464
30
0
0
LINE
5
945
100
AcDbEntity
8
0
100
AcDbLine
10
62.77903481033232
20
-166.93443971164464
30
0
11
61.687237458495176
21
-168.0897136259818
31
0
0
SPLINE
5
946
100
AcDbEntity
8
0
100
AcDbSpline
70
0
71
3
72
9
73
5
74
0
42
0.000000001
43
0.0000000001
44
0.0000000001
40
0
40
0
40
0
40
0
40
0.12524851018040795
40
0.25864735552225171
40
0.25864735552225171
40
0.25864735552225171
40
0.25864735552225171
10
61.687237458495176
20
-168.0897136259818
30
0
10
61.388108792674103
20
-167.79843494763739
30
0
10
60.770386168556065
20
-167.19692312314316
30
0
10
60.135683615456379
20
-166.61335068271995
30
0
10
59.808332162169492
20
-166.3123698759818
30
0
0
LINE
5
947
100
AcDbEntity
8
0
100
AcDbLine
10
70.840558247832334
20
-168.54674416072606
30
0
11
70.510479645995176
21
-166.76940041072606
31
0
0
SPLINE
5
948
100
AcDbEntity
8
0
100
AcDbSpline
70
0
71
3
72
9
73
5
74
0
42
0.000000001
43
0.0000000001
44
0.0000000001
40
0
40
0
40
0
40
0
40
0.23349589469883011
40
0.47327803907300647
40
0.47327803907300647
40
0.47327803907300647
40
0.47327803907300647
10
70.510479645995176
20
-166.76940041072606
30
0
10
71.282133464862738
20
-166.66754436047455
30
0
10
72.84621580861392
20
-166.46109005945604
30
0
10
74.405202582371004
20
-166.21913367701376
30
0
10
75.195049481658017
20
-166.09654860980748
30
0
0
SPLINE
5
949
100
AcDbEntity
8
0
100
AcDbSpline
70
0
71
3
72
9
73
5
74
0
42
0.000000001
43
0.0000000001
44
0.0000000001
40
0
40
0
40
0
40
0
40
0.041496310745391292
40
0.085789309719649251
40
0.085789309719649251
40
0.085789309719649251
40
0.085789309719649251
10
75.195049481658017
20
-166.09654860980748
30
0
10
75.185497325294378
20
-166.2345615046992
30
0
10
75.165749234776257
20
-166.51988882109168
30
0
10
75.159955698929167
20
-166.80584374727829
30
0
10
75.156964497832334
20
-166.95348220355748
30
0
0
SPLINE
5
950
100
AcDbEntity
8
0
100
AcDbSpline
70
0
71
3
72
9
73
5
74
0
42
0.000000001
43
0.0000000001
44
0.0000000001
40
0
40
0
40
0
40
0
40
0.14993772166135147
40
0.29463323015614501
40
0.29463323015614501
40
0.29463323015614501
40
0.29463323015614501
10
75.156964497832334
20
-166.95348220355748
30
0
10
75.631531696420552
20
-166.79469851905307
30
0
10
76.56407398862639
20
-166.48268264110544
30
0
10
77.446665774319769
20
-166.04918701872847
30
0
10
77.88010998275665
20
-165.8362956572318
30
0
0
SPLINE
5
951
100
AcDbEntity
8
0
100
AcDbSpline
70
0
71
3
72
9
73
5
74
0
42
0.000000001
43
0.0000000001
44
0.0000000001
40
0
40
0
40
0
40
0
40
0.10184553538896179
40
0.21893406371825697
40
0.21893406371825697
40
0.21893406371825697
40
0.21893406371825697
10
77.88010998275665
20
-165.8362956572318
30
0
10
77.787968454438328
20
-165.50920128906137
30
0
10
77.589894781842844
20
-164.80605707199368
30
0
10
77.481204643859272
20
-164.0835437171535
30
0
10
77.423075871733701
20
-163.69713502414464
30
0
0
LINE
5
952
100
AcDbEntity
8
0
100
AcDbLine
10
77.423075871733701
20
-163.69713502414459
30
0
11
75.283917622832334
21
-163.95104127414464
31
0
0
LINE
5
953
100
AcDbEntity
8
0
100
AcDbLine
10
75.283917622832334
20
-163.95104127414464
30
0
11
75.068096356658017
21
-162.41490858085393
31
0
0
LINE
5
954
100
AcDbEntity
8
0
100
AcDbLine
10
75.068096356658017
20
-162.41490858085393
30
0
11
77.258037762908017
21
-162.15465443618535
31
0
0
LINE
5
955
100
AcDbEntity
8
0
100
AcDbLine
10
77.258037762908017
20
-162.15465443618535
30
0
11
77.18186779525665
21
-160.88512318618535
31
0
0
LINE
5
956
100
AcDbEntity
8
0
100
AcDbLine
10
77.18186779525665
20
-160.88512318618535
30
0
11
75.512432294158017
21
-161.05650978572606
31
0
0
LINE
5
957
100
AcDbEntity
8
0
100
AcDbLine
10
75.512432294158017
20
-161.05650978572606
30
0
11
75.43626232650665
21
-160.37731068618535
31
0
0
SPLINE
5
958
100
AcDbEntity
8
0
100
AcDbSpline
70
0
71
3
72
9
73
5
74
0
42
0.000000001
43
0.0000000001
44
0.0000000001
40
0
40
0
40
0
40
0
40
0.22749197116957126
40
0.41753438045354585
40
0.41753438045354585
40
0.41753438045354585
40
0.41753438045354585
10
75.43626232650665
20
-160.37731068618535
30
0
10
75.040024248782629
20
-161.02418251845029
30
0
10
74.312776515844874
20
-162.21143861513377
30
0
10
73.505735694869955
20
-163.34584487221889
30
0
10
73.138407902983701
20
-163.86217432506322
30
0
0
SPLINE
5
959
100
AcDbEntity
8
0
100
AcDbSpline
70
0
71
3
72
9
73
5
74
0
42
0.000000001
43
0.0000000001
44
0.0000000001
40
0
40
0
40
0
40
0
40
0.10593171410528432
40
0.19285984984370586
40
0.19285984984370586
40
0.19285984984370586
40
0.19285984984370586
10
73.138407902983701
20
-163.86217432506322
30
0
10
73.487812169893814
20
-163.81103680635377
30
0
10
74.123939462085673
20
-163.71793556407721
30
0
10
74.757250933616632
20
-163.60733702411434
30
0
10
75.042704777983701
20
-163.55748670585393
30
0
0
SPLINE
5
960
100
AcDbEntity
8
0
100
AcDbSpline
70
0
71
3
72
9
73
5
74
0
42
0.000000001
43
0.0000000001
44
0.0000000001
40
0
40
0
40
0
40
0
40
0.066004144319068189
40
0.15921367638507616
40
0.15921367638507616
40
0.15921367638507616
40
0.15921367638507616
10
75.042704777983701
20
-163.55748670585393
30
0
10
75.020265812973207
20
-163.77637521740178
30
0
10
74.966139058502648
20
-164.30437304240991
30
0
10
74.934357654069174
20
-164.83421262584153
30
0
10
74.915751652983701
20
-165.14440017230748
30
0
0
SPLINE
5
961
100
AcDbEntity
8
0
100
AcDbSpline
70
0
71
3
72
9
73
5
74
0
42
0.000000001
43
0.0000000001
44
0.0000000001
40
0
40
0
40
0
40
0
40
0.2302590896538721
40
0.3708060990258023
40
0.3708060990258023
40
0.3708060990258023
40
0.3708060990258023
10
74.915751652983701
20
-165.14440017230748
30
0
10
74.153856954309134
20
-165.24123130816096
30
0
10
72.926912117913616
20
-165.39716684931176
30
0
10
71.717795352622915
20
-165.65576042655934
30
0
10
71.259502606658017
20
-165.75377541072606
30
0
0
LINE
5
962
100
AcDbEntity
8
0
100
AcDbLine
10
71.259502606658003
20
-165.75377541072606
30
0
11
70.789775090483701
21
-164.33190064914464
31
0
0
SPLINE
5
963
100
AcDbEntity
8
0
100
AcDbSpline
70
0
71
3
72
9
73
5
74
0
42
0.000000001
43
0.0000000001
44
0.0000000001
40
0
40
0
40
0
40
0
40
0.12628272526866041
40
0.2849339126469333
40
0.2849339126469333
40
0.2849339126469333
40
0.2849339126469333
10
70.789775090483701
20
-164.33190064914464
30
0
10
71.080166650688753
20
-164.02622435461157
30
0
10
71.735382186090305
20
-163.33652160691256
30
0
10
72.26964264527777
20
-162.5488156156207
30
0
10
72.567118840483701
20
-162.11022096164464
30
0
0
SPLINE
5
964
100
AcDbEntity
8
0
100
AcDbSpline
70
0
71
3
72
9
73
5
74
0
42
0.000000001
43
0.0000000001
44
0.0000000001
40
0
40
0
40
0
40
0
40
0.074249559442868845
40
0.15942333129043113
40
0.15942333129043113
40
0.15942333129043113
40
0.15942333129043113
10
72.567118840483701
20
-162.11022096164464
30
0
10
72.320559688616584
20
-162.13181251662405
30
0
10
71.791165552870297
20
-162.17817235563712
30
0
10
71.262598097983684
20
-162.2331773918705
30
0
10
70.980204777983701
20
-162.26256447322606
30
0
0
LINE
5
965
100
AcDbEntity
8
0
100
AcDbLine
10
70.980204777983701
20
-162.26256447322606
30
0
11
70.510479645995176
21
-160.81529932506322
31
0
0
SPLINE
5
966
100
AcDbEntity
8
0
100
AcDbSpline
70
0
71
3
72
9
73
5
74
0
42
0.000000001
43
0.0000000001
44
0.0000000001
40
0
40
0
40
0
40
0
40
0.20132438967732991
40
0.47542585897429662
40
0.47542585897429662
40
0.47542585897429662
40
0.47542585897429662
10
70.510479645995176
20
-160.81529932506322
30
0
10
70.893288222096785
20
-160.26242389618702
30
0
10
71.797287466339043
20
-158.95681320440477
30
0
10
72.43859372449046
20
-157.50243683110705
30
0
10
72.808331685332334
20
-156.6639323759818
30
0
0
LINE
5
967
100
AcDbEntity
8
0
100
AcDbLine
10
72.808331685332334
20
-156.6639323759818
30
0
11
74.42063732650665
21
-157.2986980009818
31
0
0
SPLINE
5
968
100
AcDbEntity
8
0
100
AcDbSpline
70
0
71
3
72
9
73
5
74
0
42
0.000000001
43
0.0000000001
44
0.0000000001
40
0
40
0
40
0
40
0
40
0.2115980686686289
40
0.39172312074607119
40
0.39172312074607119
40
0.39172312074607119
40
0.39172312074607119
10
74.42063732650665
20
-157.2986980009818
30
0
10
74.071876902550088
20
-157.91187560605556
30
0
10
73.426230548003574
20
-159.04702701146491
30
0
10
72.733373575052298
20
-160.15395795892061
30
0
10
72.414778905180967
20
-160.66295521743535
30
0
0
SPLINE
5
969
100
AcDbEntity
8
0
100
AcDbSpline
70
0
71
3
72
9
73
5
74
0
42
0.000000001
43
0.0000000001
44
0.0000000001
40
0
40
0
40
0
40
0
40
0.050797116363917601
40
0.10798241733041447
40
0.10798241733041447
40
0.10798241733041447
40
0.10798241733041447
10
72.414778905180967
20
-160.66295521743535
30
0
10
72.584076574801571
20
-160.65949645163525
30
0
10
72.943962586500959
20
-160.65214394978454
30
0
10
73.303484790690334
20
-160.63431270409652
30
0
10
73.493880467680967
20
-160.62486963756322
30
0
0
SPLINE
5
970
100
AcDbEntity
8
0
100
AcDbSpline
70
0
71
3
72
9
73
5
74
0
42
0.000000001
43
0.0000000001
44
0.0000000001
40
0
40
0
40
0
40
0
40
0.070229888174401678
40
0.14439964230888186
40
0.14439964230888186
40
0.14439964230888186
40
0.14439964230888186
10
73.493880467680967
20
-160.62486963756322
30
0
10
73.610783162999269
20
-160.42204388982822
30
0
10
73.85114674363021
20
-160.00501395876478
30
0
10
74.08480124265175
20
-159.58418771215921
30
0
10
74.204816060332334
20
-159.36803358085393
30
0
0
LINE
5
971
100
AcDbEntity
8
0
100
AcDbLine
10
74.204816060332334
20
-159.3680335808539
30
0
11
75.391825871733701
21
-159.92662745006322
31
0
0
LINE
5
972
100
AcDbEntity
8
0
100
AcDbLine
10
75.391825871733701
20
-159.92662745006322
30
0
11
75.347394185332334
21
-159.50768189914464
31
0
0
LINE
5
973
100
AcDbEntity
8
0
100
AcDbLine
10
75.347394185332334
20
-159.50768189914464
30
0
11
77.092999654082334
21
-159.33629529960393
31
0
0
LINE
5
974
100
AcDbEntity
8
0
100
AcDbLine
10
77.092999654082334
20
-159.33629529960393
30
0
11
76.985091405180967
21
-156.70201855190038
31
0
0
LINE
5
975
100
AcDbEntity
8
0
100
AcDbLine
10
76.985091405180967
20
-156.70201855190038
30
0
11
78.698953824309385
21
-156.70201855190038
31
0
0
SPLINE
5
976
100
AcDbEntity
8
0
100
AcDbSpline
70
0
71
3
72
9
73
5
74
0
42
0.000000001
43
0.0000000001
44
0.0000000001
40
0
40
0
40
0
40
0
40
0.12618848286420775
40
0.24702864105665362
40
0.24702864105665362
40
0.24702864105665362
40
0.24702864105665362
10
78.698953824309385
20
-156.70201855190038
30
0
10
78.706434453624922
20
-157.12259368273709
30
0
10
78.721078656107778
20
-157.94591844799814
30
0
10
78.753111970978267
20
-158.76874880991073
30
0
10
78.76878185775665
20
-159.1712565947318
30
0
0
LINE
5
977
100
AcDbEntity
8
0
100
AcDbLine
10
78.76878185775665
20
-159.1712565947318
30
0
11
80.984114842680967
21
-158.95543652065038
31
0
0
SPLINE
5
978
100
AcDbEntity
8
0
100
AcDbSpline
70
0
71
3
72
9
73
5
74
0
42
0.000000001
43
0.0000000001
44
0.0000000001
40
0
40
0
40
0
40
0
40
0.10037718621636915
40
0.21270786925868462
40
0.21270786925868462
40
0.21270786925868462
40
0.21270786925868462
10
80.984114842680967
20
-158.95543652065038
30
0
10
80.71170282137075
20
-158.76105215585579
30
0
10
80.134438377152847
20
-158.3491350100262
30
0
10
79.535672037222227
20
-157.96911322005758
30
0
10
79.219464497832334
20
-157.76842432506322
30
0
0
LINE
5
979
100
AcDbEntity
8
0
100
AcDbLine
10
79.219464497832334
20
-157.76842432506322
30
0
11
80.044659810332334
21
-156.67662697322606
31
0
0
SPLINE
5
980
100
AcDbEntity
8
0
100
AcDbSpline
70
0
71
3
72
9
73
5
74
0
42
0.000000001
43
0.0000000001
44
0.0000000001
40
0
40
0
40
0
40
0
40
0.11825722174769365
40
0.23910283155850523
40
0.23910283155850523
40
0.23910283155850523
40
0.23910283155850523
10
80.044659810332334
20
-156.67662697322606
30
0
10
80.389248202215967
20
-156.86822340641504
30
0
10
81.085967260924775
20
-157.25560989338783
30
0
10
81.760419757364758
20
-157.6805880757031
30
0
10
82.101296620635068
20
-157.89537745006322
30
0
0
LINE
5
981
100
AcDbEntity
8
0
100
AcDbLine
10
82.101296620635054
20
-157.89537745006319
30
0
11
81.326884465483701
21
-158.9173503447318
31
0
0
LINE
5
982
100
AcDbEntity
8
0
100
AcDbLine
10
81.326884465483701
20
-158.9173503447318
30
0
11
82.545632558135068
21
-158.79674511440038
31
0
0
LINE
5
983
100
AcDbEntity
8
0
100
AcDbLine
10
82.545632558135068
20
-158.79674511440038
30
0
11
82.697982030180967
21
-160.32018201835393
31
0
0
LINE
5
984
100
AcDbEntity
8
0
100
AcDbLine
10
82.697982030180967
20
-160.32018201835393
30
0
11
78.851298527983701
21
-160.71373658664464
31
0
0
LINE
5
985
100
AcDbEntity
8
0
100
AcDbLine
10
78.851298527983701
20
-160.71373658664464
30
0
11
78.946513371733701
21
-161.95787745006322
31
0
0
LINE
5
986
100
AcDbEntity
8
0
100
AcDbLine
10
78.946513371733701
20
-161.95787745006322
30
0
11
82.888411717680967
21
-161.48815052993535
31
0
0
LINE
5
987
100
AcDbEntity
8
0
100
AcDbLine
10
82.888411717680967
20
-161.48815052993535
30
0
11
83.053445058135068
21
-163.01158802993535
31
0
0
LINE
5
988
100
AcDbEntity
8
0
100
AcDbLine
10
83.053445058135068
20
-163.01158802993535
30
0
11
81.523665623930967
21
-163.19567041881322
31
0
0
LINE
5
989
100
AcDbEntity
8
0
100
AcDbLine
10
81.523665623930967
20
-163.19567041881322
30
0
11
82.647198872832334
21
-164.09068899638891
31
0
0
SPLINE
5
990
100
AcDbEntity
8
0
100
AcDbSpline
70
0
71
3
72
9
73
5
74
0
42
0.000000001
43
0.0000000001
44
0.0000000001
40
0
40
0
40
0
40
0
40
0.17954396528991048
40
0.35486413560884
40
0.35486413560884
40
0.35486413560884
40
0.35486413560884
10
82.647198872832334
20
-164.09068899638891
30
0
10
82.231668556473409
20
-164.52293289393077
30
0
10
81.410383328112317
20
-165.37725209550186
30
0
10
80.462283938459422
20
-166.08811974966392
30
0
10
79.993876652983701
20
-166.4393230009818
30
0
0
SPLINE
5
991
100
AcDbEntity
8
0
100
AcDbSpline
70
0
71
3
72
9
73
5
74
0
42
0.000000001
43
0.0000000001
44
0.0000000001
40
0
40
0
40
0
40
0
40
0.080125553609779909
40
0.13019027803733563
40
0.13019027803733563
40
0.13019027803733563
40
0.13019027803733563
10
79.993876652983701
20
-166.4393230009818
30
0
10
80.138393591647755
20
-166.67705251474072
30
0
10
80.373208823220509
20
-167.06332218901576
30
0
10
80.791516264549699
20
-167.21322126525624
30
0
10
80.952376561430967
20
-167.27086501605748
30
0
0
SPLINE
5
992
100
AcDbEntity
8
0
100
AcDbSpline
70
0
71
3
72
9
73
5
74
0
42
0.000000001
43
0.0000000001
44
0.0000000001
40
0
40
0
40
0
40
0
40
0.022167210336860671
40
0.050641206680660314
40
0.050641206680660314
40
0.050641206680660314
40
0.050641206680660314
10
80.952376561430967
20
-167.27086501605748
30
0
10
81.027372884861265
20
-167.25270893447913
30
0
10
81.19870271199828
20
-167.21123119029096
30
0
10
81.2807511479852
20
-167.05234274059995
30
0
10
81.326884465483701
20
-166.9630046416068
30
0
0
SPLINE
5
993
100
AcDbEntity
8
0
100
AcDbSpline
70
0
71
3
72
9
73
5
74
0
42
0.000000001
43
0.0000000001
44
0.0000000001
40
0
40
0
40
0
40
0
40
0.05835359341078053
40
0.16642960061682602
40
0.16642960061682602
40
0.16642960061682602
40
0.16642960061682602
10
81.326884465483701
20
-166.9630046416068
30
0
10
81.387018102468261
20
-166.77784675720096
30
0
10
81.558524544522712
20
-166.24976012274493
30
0
10
81.656690357580743
20
-165.70274571274814
30
0
10
81.720437245635068
20
-165.34752564914464
30
0
0
SPLINE
5
994
100
AcDbEntity
8
0
100
AcDbSpline
70
0
71
3
72
9
73
5
74
0
42
0.000000001
43
0.0000000001
44
0.0000000001
40
0
40
0
40
0
40
0
40
0.090843087911834305
40
0.16579766510563818
40
0.16579766510563818
40
0.16579766510563818
40
0.16579766510563818
10
81.720437245635068
20
-165.34752564914464
30
0
10
81.989298826292426
20
-165.48690751231177
30
0
10
82.479997935429523
20
-165.74129326693969
30
0
10
82.979828714167368
20
-165.97720289435901
30
0
10
83.205794530180967
20
-166.08385401256322
30
0
0
SPLINE
5
995
100
AcDbEntity
8
0
100
AcDbSpline
70
0
71
3
72
9
73
5
74
0
42
0.000000001
43
0.0000000001
44
0.0000000001
40
0
40
0
40
0
40
0
40
0.16919763081818914
40
0.27236570659936965
40
0.27236570659936965
40
0.27236570659936965
40
0.27236570659936965
10
83.205794530180967
20
-166.08385401256322
30
0
10
83.074971100996478
20
-166.63669025054003
30
0
10
82.864378224741216
20
-167.52661779776489
30
0
10
82.414518902021001
20
-168.31943471948537
30
0
10
82.244118886260068
20
-168.61974196918248
30
0
0
SPLINE
5
996
100
AcDbEntity
8
0
100
AcDbSpline
70
0
71
3
72
9
73
5
74
0
42
0.000000001
43
0.0000000001
44
0.0000000001
40
0
40
0
40
0
40
0
40
0.066167327742895105
40
0.12630800341111043
40
0.12630800341111043
40
0.12630800341111043
40
0.12630800341111043
10
82.244118886260068
20
-168.61974196918248
30
0
10
82.08568341328386
20
-168.7834791519883
30
0
10
81.783243085953757
20
-169.09604000868063
30
0
10
81.353681119928169
20
-169.15394075082537
30
0
10
81.149148183135068
20
-169.18150978572606
30
0
0
SPLINE
5
997
100
AcDbEntity
8
0
100
AcDbSpline
70
0
71
3
72
9
73
5
74
0
42
0.000000001
43
0.0000000001
44
0.0000000001
40
0
40
0
40
0
40
0
40
0.15354065326029803
40
0.33287925014900621
40
0.33287925014900621
40
0.33287925014900621
40
0.33287925014900621
10
81.149148183135068
20
-169.18150978572606
30
0
10
80.624112456053695
20
-169.08461018758433
30
0
10
79.485824351756094
20
-168.87452989364118
30
0
10
78.858950442347592
20
-167.89009640570183
30
0
10
78.521222310332334
20
-167.3597331572318
30
0
0
SPLINE
5
998
100
AcDbEntity
8
0
100
AcDbSpline
70
0
71
3
72
9
73
5
74
0
42
0.000000001
43
0.0000000001
44
0.0000000001
40
0
40
0
40
0
40
0
40
0.17340534933044416
40
0.3492123854151889
40
0.3492123854151889
40
0.3492123854151889
40
0.3492123854151889
10
78.521222310332334
20
-167.3597331572318
30
0
10
78.005659571723967
20
-167.62345475985171
30
0
10
76.967393483187578
20
-168.15455054375934
30
0
10
75.856086162356064
20
-168.50830126500173
30
0
10
75.296611027983701
20
-168.68639307506322
30
0
0
SPLINE
5
999
100
AcDbEntity
8
0
100
AcDbSpline
70
0
71
3
72
9
73
5
74
0
42
0.000000001
43
0.0000000001
44
0.0000000001
40
0
40
0
40
0
40
0
40
0.046129820336604545
40
0.095979112317825729
40
0.095979112317825729
40
0.095979112317825729
40
0.095979112317825729
10
75.296611027983701
20
-168.68639307506322
30
0
10
75.228964388598996
20
-168.54827658149594
30
0
10
75.088216725762834
20
-168.2609071889359
30
0
10
74.932928263122392
20
-167.98112148538985
30
0
10
74.852275090483701
20
-167.8358073759818
30
0
0
SPLINE
5
1000
100
AcDbEntity
8
0
100
AcDbSpline
70
0
71
3
72
9
73
5
74
0
42
0.000000001
43
0.0000000001
44
0.0000000001
40
0
40
0
40
0
40
0
40
0.21653587813324837
40
0.40744783364037107
40
0.40744783364037107
40
0.40744783364037107
40
0.40744783364037107
10
74.852275090483701
20
-167.8358073759818
30
0
10
74.139528936646784
20
-167.9500706203379
30
0
10
72.798379937137071
20
-168.16507568914673
30
0
10
71.465218484062376
20
-168.42496947668781
30
0
10
70.840558247832334
20
-168.54674416072606
30
0
0
LINE
5
1001
100
AcDbEntity
8
0
100
AcDbLine
10
81.377667622832334
20
-163.21471291072606
30
0
11
79.136943059233701
21
-163.48766224868535
31
0
0
SPLINE
5
1002
100
AcDbEntity
8
0
100
AcDbSpline
70
0
71
3
72
9
73
5
74
0
42
0.000000001
43
0.0000000001
44
0.0000000001
40
0
40
0
40
0
40
0
40
0.073055485927553912
40
0.14430015472975355
40
0.14430015472975355
40
0.14430015472975355
40
0.14430015472975355
10
79.136943059233701
20
-163.48766224868535
30
0
10
79.178392843626696
20
-163.72766675085199
30
0
10
79.260265001829225
20
-164.20172679382844
30
0
10
79.364685716400203
20
-164.67133309621804
30
0
10
79.416240887908017
20
-164.90318971164464
30
0
0
SPLINE
5
1003
100
AcDbEntity
8
0
100
AcDbSpline
70
0
71
3
72
9
73
5
74
0
42
0.000000001
43
0.0000000001
44
0.0000000001
40
0
40
0
40
0
40
0
40
0.12989887893855767
40
0.25910118447903518
40
0.25910118447903518
40
0.25910118447903518
40
0.25910118447903518
10
79.416240887908017
20
-164.90318971164464
30
0
10
79.764167535636389
20
-164.64441389239497
30
0
10
80.458155099461948
20
-164.12824992061934
30
0
10
81.071713282873077
20
-163.51867898599579
30
0
10
81.377667622832334
20
-163.21471291072606
30
0
0
CIRCLE
5
1004
100
AcDbEntity
8
0
100
AcDbCircle
10
-137.81385365587886
20
164.05529573620538
30
0
40
1.4999999999999858
210
0
220
0
230
1
0
CIRCLE
5
1005
100
AcDbEntity
8
0
100
AcDbCircle
10
-137.81385365587886
20
-165.05856732098667
30
0
40
1.499999999999996
210
0
220
0
230
1
0
CIRCLE
5
1006
100
AcDbEntity
8
0
100
AcDbCircle
10
137.9061753160729
20
-165.0585673209867
30
0
40
1.499999999999996
210
0
220
0
230
1
0
CIRCLE
5
1007
100
AcDbEntity
8
0
100
AcDbCircle
10
137.9061753160729
20
164.05529573620538
30
0
40
1.4999999999999858
210
0
220
0
230
1
0
LWPOLYLINE
5
1008
100
AcDbEntity
8
0
100
AcDbPolyline
90
8
70
1
43
0.0
10
-79.3633410221058
20
187.02216494670853
10
80.307565871397273
20
187.0221649467085
42
0.41421356237309448
10
90.307565871397259
20
197.0221649467085
10
90.307565871397273
20
214.50870945097748
42
0.41421356237309448
10
80.307565871397273
20
224.50870945097748
10
-79.3633410221058
20
224.50870945097748
42
0.41421356237309426
10
-89.363341022105772
20
214.50870945097748
10
-89.363341022105786
20
197.02216494670853
42
0.41421356237309215
0
LINE
5
1009
100
AcDbEntity
8
0
100
AcDbLine
10
-66.619703981604161
20
210.91618826645384
30
0
11
-72.625563356604161
21
210.91618826645384
31
0
0
LINE
5
1010
100
AcDbEntity
8
0
100
AcDbLine
10
-72.625563356604161
20
210.91618826645384
30
0
11
-72.625563356604161
21
209.50017264145384
31
0
0
LINE
5
1011
100
AcDbEntity
8
0
100
AcDbLine
10
-72.625563356604161
20
209.50017264145384
30
0
11
-58.758375856604161
21
209.50017264145384
31
0
0
LINE
5
1012
100
AcDbEntity
8
0
100
AcDbLine
10
-58.758375856604161
20
209.50017264145384
30
0
11
-58.758375856604161
21
210.91618826645384
31
0
0
LINE
5
1013
100
AcDbEntity
8
0
100
AcDbLine
10
-58.758375856604161
20
210.91618826645384
30
0
11
-64.764235231604161
21
210.91618826645384
31
0
0
LINE
5
1014
100
AcDbEntity
8
0
100
AcDbLine
10
-64.764235231604161
20
210.91618826645384
30
0
11
-64.764235231604161
21
213.11345389145384
31
0
0
LINE
5
1015
100
AcDbEntity
8
0
100
AcDbLine
10
-64.764235231604161
20
213.11345389145384
30
0
11
-58.758375856604161
21
213.11345389145384
31
0
0
LINE
5
1016
100
AcDbEntity
8
0
100
AcDbLine
10
-58.758375856604161
20
213.11345389145384
30
0
11
-58.758375856604161
21
214.50505545395384
31
0
0
LINE
5
1017
100
AcDbEntity
8
0
100
AcDbLine
10
-58.758375856604161
20
214.50505545395384
30
0
11
-64.910719606604161
21
214.50505545395384
31
0
0
LINE
5
1018
100
AcDbEntity
8
0
100
AcDbLine
10
-64.910719606604161
20
214.50505545395384
30
0
11
-64.910719606604161
21
216.84880545395384
31
0
0
LINE
5
1019
100
AcDbEntity
8
0
100
AcDbLine
10
-64.910719606604161
20
216.84880545395384
30
0
11
-55.731032106604161
21
216.84880545395384
31
0
0
LINE
5
1020
100
AcDbEntity
8
0
100
AcDbLine
10
-55.731032106604161
20
216.84880545395384
30
0
11
-55.731032106604161
21
207.15642264145384
31
0
0
LINE
5
1021
100
AcDbEntity
8
0
100
AcDbLine
10
-55.731032106604161
20
207.15642264145384
30
0
11
-75.652907106604161
21
207.15642264145384
31
0
0
LINE
5
1022
100
AcDbEntity
8
0
100
AcDbLine
10
-75.652907106604161
20
207.15642264145384
30
0
11
-75.652907106604161
21
216.38493826645384
31
0
0
SPLINE
5
1023
100
AcDbEntity
8
0
100
AcDbSpline
70
0
71
3
72
9
73
5
74
0
42
0.000000001
43
0.0000000001
44
0.0000000001
40
0
40
0
40
0
40
0
40
0.44590139768188497
40
0.88843153570041034
40
0.88843153570041034
40
0.88843153570041034
40
0.88843153570041034
10
-75.652907106604161
20
216.38493826645384
30
0
10
-74.17350847147334
20
216.54094249719316
30
0
10
-71.225896268068595
20
216.85177148093712
30
0
10
-68.330475528723085
20
217.48536116521322
30
0
10
-66.888258669104161
20
217.80095389145384
30
0
0
LINE
5
1024
100
AcDbEntity
8
0
100
AcDbLine
10
-66.888258669104161
20
217.80095389145384
30
0
11
-65.691969606604161
21
215.16423514145384
31
0
0
SPLINE
5
1025
100
AcDbEntity
8
0
100
AcDbSpline
70
0
71
3
72
9
73
5
74
0
42
0.000000001
43
0.0000000001
44
0.0000000001
40
0
40
0
40
0
40
0
40
0.34043394557721401
40
0.69851426036821218
40
0.69851426036821218
40
0.69851426036821218
40
0.69851426036821218
10
-65.691969606604161
20
215.16423514145384
30
0
10
-66.813419980139358
20
214.98820787712756
30
0
10
-69.114451027091548
20
214.62702898782194
30
0
10
-71.435646014818659
20
214.43341144210254
30
0
10
-72.625563356604161
20
214.33415701645384
30
0
0
LINE
5
1026
100
AcDbEntity
8
0
100
AcDbLine
10
-72.625563356604161
20
214.33415701645387
30
0
11
-72.625563356604161
21
213.11345389145384
31
0
0
LINE
5
1027
100
AcDbEntity
8
0
100
AcDbLine
10
-72.625563356604161
20
213.11345389145384
30
0
11
-66.619703981604161
21
213.11345389145384
31
0
0
LINE
5
1028
100
AcDbEntity
8
0
100
AcDbLine
10
-66.619703981604161
20
213.11345389145384
30
0
11
-66.619703981604161
21
210.91618826645384
31
0
0
SPLINE
5
1029
100
AcDbEntity
8
0
100
AcDbSpline
70
0
71
3
72
9
73
5
74
0
42
0.000000001
43
0.0000000001
44
0.0000000001
40
0
40
0
40
0
40
0
40
0.15421737361088908
40
0.31134467526157772
40
0.31134467526157772
40
0.31134467526157772
40
0.31134467526157772
10
-59.564039919104161
20
198.53825857895384
30
0
10
-59.630234757809646
20
198.02822281232568
30
0
10
-59.763873465811201
20
196.99852741280932
30
0
10
-59.809545271849238
20
195.96118933098597
30
0
10
-59.832594606604161
20
195.43767264145384
30
0
0
SPLINE
5
1030
100
AcDbEntity
8
0
100
AcDbSpline
70
0
71
3
72
9
73
5
74
0
42
0.000000001
43
0.0000000001
44
0.0000000001
40
0
40
0
40
0
40
0
40
0.46129053141938042
40
0.74063224552010776
40
0.74063224552010776
40
0.74063224552010776
40
0.74063224552010776
10
-59.832594606604161
20
195.43767264145384
30
0
10
-61.336420985625409
20
195.11038114476023
30
0
10
-63.750913007691857
20
194.58489315048044
30
0
10
-66.099940360117401
20
193.82135632290834
30
0
10
-66.985914919104161
20
193.53337576645384
30
0
0
LINE
5
1031
100
AcDbEntity
8
0
100
AcDbLine
10
-66.985914919104147
20
193.53337576645387
30
0
11
-68.157789919104161
21
196.09685232895384
31
0
0
SPLINE
5
1032
100
AcDbEntity
8
0
100
AcDbSpline
70
0
71
3
72
9
73
5
74
0
42
0.000000001
43
0.0000000001
44
0.0000000001
40
0
40
0
40
0
40
0
40
0.08394497679176853
40
0.16418705896728022
40
0.16418705896728022
40
0.16418705896728022
40
0.16418705896728022
10
-68.157789919104161
20
196.09685232895384
30
0
10
-67.944198633045517
20
196.2928864468231
30
0
10
-67.52643778040985
20
196.67630742685435
30
0
10
-67.458547582551091
20
197.23823883957547
30
0
10
-67.425368044104161
20
197.51286795395384
30
0
0
LINE
5
1033
100
AcDbEntity
8
0
100
AcDbLine
10
-67.425368044104161
20
197.51286795395387
30
0
11
-67.425368044104161
21
206.47282889145384
31
0
0
LINE
5
1034
100
AcDbEntity
8
0
100
AcDbLine
10
-67.425368044104161
20
206.47282889145384
30
0
11
-64.495680544104161
21
206.47282889145384
31
0
0
LINE
5
1035
100
AcDbEntity
8
0
100
AcDbLine
10
-64.495680544104161
20
206.47282889145384
30
0
11
-64.495680544104161
21
197.26872732895384
31
0
0
LINE
5
1036
100
AcDbEntity
8
0
100
AcDbLine
10
-64.495680544104161
20
197.26872732895384
30
0
11
-59.564039919104161
21
198.53825857895384
31
0
0
SPLINE
5
1037
100
AcDbEntity
8
0
100
AcDbSpline
70
0
71
3
72
9
73
5
74
0
42
0.000000001
43
0.0000000001
44
0.0000000001
40
0
40
0
40
0
40
0
40
0.16400181692559085
40
0.31427230528959643
40
0.31427230528959643
40
0.31427230528959643
40
0.31427230528959643
10
-68.499586794104161
20
198.41618826645384
30
0
10
-68.591276699687597
20
197.87632577383147
30
0
10
-68.766979618958118
20
196.84180168576722
30
0
10
-68.784282233626499
20
195.79278131442987
30
0
10
-68.792555544104161
20
195.29118826645384
30
0
0
SPLINE
5
1038
100
AcDbEntity
8
0
100
AcDbSpline
70
0
71
3
72
9
73
5
74
0
42
0.000000001
43
0.0000000001
44
0.0000000001
40
0
40
0
40
0
40
0
40
0.42589639279216629
40
0.66465933989311998
40
0.66465933989311998
40
0.66465933989311998
40
0.66465933989311998
10
-68.792555544104161
20
195.29118826645384
30
0
10
-70.183688128636902
20
194.99560705294741
30
0
10
-72.354707374133454
20
194.53431924309768
30
0
10
-74.439962105501593
20
193.77995057748797
30
0
10
-75.189039919104161
20
193.50896170395384
30
0
0
LINE
5
1039
100
AcDbEntity
8
0
100
AcDbLine
10
-75.189039919104161
20
193.50896170395387
30
0
11
-76.336500856604161
21
195.97478201645384
31
0
0
SPLINE
5
1040
100
AcDbEntity
8
0
100
AcDbSpline
70
0
71
3
72
9
73
5
74
0
42
0.000000001
43
0.0000000001
44
0.0000000001
40
0
40
0
40
0
40
0
40
0.085805965677685406
40
0.16367304787405779
40
0.16367304787405779
40
0.16367304787405779
40
0.16367304787405779
10
-76.336500856604161
20
195.97478201645384
30
0
10
-76.123028726620106
20
196.17923370949583
30
0
10
-75.715835195556053
20
196.56922094964756
30
0
10
-75.640106660711609
20
197.12593987321114
30
0
10
-75.604078981604161
20
197.39079764145384
30
0
0
LINE
5
1041
100
AcDbEntity
8
0
100
AcDbLine
10
-75.604078981604161
20
197.39079764145387
30
0
11
-75.604078981604161
21
206.47282889145384
31
0
0
LINE
5
1042
100
AcDbEntity
8
0
100
AcDbLine
10
-75.604078981604161
20
206.47282889145384
30
0
11
-72.674391481604161
21
206.47282889145384
31
0
0
LINE
5
1043
100
AcDbEntity
8
0
100
AcDbLine
10
-72.674391481604161
20
206.47282889145384
30
0
11
-72.674391481604161
21
197.31755545395384
31
0
0
SPLINE
5
1044
100
AcDbEntity
8
0
100
AcDbSpline
70
0
71
3
72
9
73
5
74
0
42
0.000000001
43
0.0000000001
44
0.0000000001
40
0
40
0
40
0
40
0
40
0.20858133972054477
40
0.43170136207278897
40
0.43170136207278897
40
0.43170136207278897
40
0.43170136207278897
10
-72.674391481604161
20
197.31755545395384
30
0
10
-72.000477891757043
20
197.48861592959119
30
0
10
-70.605677115013791
20
197.84266025794963
30
0
10
-69.217203736149827
20
198.22076767525027
30
0
10
-68.499586794104161
20
198.41618826645384
30
0
0
LINE
5
1045
100
AcDbEntity
8
0
100
AcDbLine
10
-59.344313356604161
20
206.47282889145384
30
0
11
-56.463453981604161
21
206.47282889145384
31
0
0
SPLINE
5
1046
100
AcDbEntity
8
0
100
AcDbSpline
70
0
71
3
72
9
73
5
74
0
42
0.000000001
43
0.0000000001
44
0.0000000001
40
0
40
0
40
0
40
0
40
0.70357017199720129
40
0.94967509335706157
40
0.94967509335706157
40
0.94967509335706157
40
0.94967509335706157
10
-56.463453981604161
20
206.47282889145384
30
0
10
-56.614144825023303
20
204.08822256409906
30
0
10
-56.817546484854745
20
200.86949424575369
30
0
10
-55.741365811416586
20
197.87407986905146
30
0
10
-55.462477419104161
20
197.09782889145384
30
0
0
SPLINE
5
1047
100
AcDbEntity
8
0
100
AcDbSpline
70
0
71
3
72
9
73
5
74
0
42
0.000000001
43
0.0000000001
44
0.0000000001
40
0
40
0
40
0
40
0
40
0.099299903781417842
40
0.3750957519064852
40
0.3750957519064852
40
0.3750957519064852
40
0.3750957519064852
10
-55.462477419104161
20
197.09782889145384
30
0
10
-55.321313121132803
20
197.39976719182607
30
0
10
-54.788078682089711
20
198.54030982575253
30
0
10
-54.810918448266946
20
199.81943710113526
30
0
10
-54.827711794104161
20
200.75993826645384
30
0
0
SPLINE
5
1048
100
AcDbEntity
8
0
100
AcDbSpline
70
0
71
3
72
9
73
5
74
0
42
0.000000001
43
0.0000000001
44
0.0000000001
40
0
40
0
40
0
40
0
40
0.12700153308228429
40
0.24420333732402205
40
0.24420333732402205
40
0.24420333732402205
40
0.24420333732402205
10
-54.827711794104161
20
200.75993826645384
30
0
10
-54.472838058591847
20
200.52869937356988
30
0
10
-53.790473456862159
20
200.08406450979393
30
0
10
-53.072623810969162
20
199.69942375742758
30
0
10
-52.728102419104161
20
199.51482107895384
30
0
0
SPLINE
5
1049
100
AcDbEntity
8
0
100
AcDbSpline
70
0
71
3
72
9
73
5
74
0
42
0.000000001
43
0.0000000001
44
0.0000000001
40
0
40
0
40
0
40
0
40
0.24534083038796878
40
0.44136253016502258
40
0.44136253016502258
40
0.44136253016502258
40
0.44136253016502258
10
-52.728102419104161
20
199.51482107895384
30
0
10
-52.843096518370629
20
198.70321566050541
30
0
10
-53.049968267056059
20
197.2431561163375
30
0
10
-53.503318941993179
20
195.84078093316663
30
0
10
-53.704664919104161
20
195.21794607895384
30
0
0
SPLINE
5
1050
100
AcDbEntity
8
0
100
AcDbSpline
70
0
71
3
72
9
73
5
74
0
42
0.000000001
43
0.0000000001
44
0.0000000001
40
0
40
0
40
0
40
0
40
0.14490548218504565
40
0.26709323087183423
40
0.26709323087183423
40
0.26709323087183423
40
0.26709323087183423
10
-53.704664919104161
20
195.21794607895384
30
0
10
-53.919782394239078
20
194.74903710121697
30
0
10
-54.316292040281368
20
193.88473292196849
30
0
10
-55.236719755677953
20
193.6939128478794
30
0
10
-55.657789919104161
20
193.60661795395384
30
0
0
SPLINE
5
1051
100
AcDbEntity
8
0
100
AcDbSpline
70
0
71
3
72
9
73
5
74
0
42
0.000000001
43
0.0000000001
44
0.0000000001
40
0
40
0
40
0
40
0
40
0.17080611051050343
40
0.39087641565181697
40
0.39087641565181697
40
0.39087641565181697
40
0.39087641565181697
10
-55.657789919104161
20
193.60661795395384
30
0
10
-56.238196520249971
20
193.75426587860835
30
0
10
-57.566411601071565
20
194.09214659841922
30
0
10
-58.102528625090805
20
195.37863833975806
30
0
10
-58.404371950354161
20
196.10295584457884
30
0
0
SPLINE
5
1052
100
AcDbEntity
8
0
100
AcDbSpline
70
0
71
3
72
9
73
5
74
0
42
0.000000001
43
0.0000000001
44
0.0000000001
40
0
40
0
40
0
40
0
40
0.39047992515715024
40
1.0438262251217942
40
1.0438262251217942
40
1.0438262251217942
40
1.0438262251217942
10
-58.404371950354161
20
196.10295584457884
30
0
10
-58.674553378172156
20
197.37932541735105
30
0
10
-59.396799111506027
20
200.79130116097204
30
0
10
-59.364518358310896
20
204.28565872107427
30
0
10
-59.344313356604161
20
206.47282889145384
30
0
0
SPLINE
5
1053
100
AcDbEntity
8
0
100
AcDbSpline
70
0
71
3
72
9
73
5
74
0
42
0.000000001
43
0.0000000001
44
0.0000000001
40
0
40
0
40
0
40
0
40
0.22631454053041569
40
0.42539022541221438
40
0.42539022541221438
40
0.42539022541221438
40
0.42539022541221438
10
-71.453688356604161
20
206.35075857895384
30
0
10
-70.741918151096684
20
206.09982029785127
30
0
10
-69.404045262094954
20
205.62814626527427
30
0
10
-68.106050569723067
20
205.0560093298304
30
0
10
-67.498610231604161
20
204.78825857895384
30
0
0
LINE
5
1054
100
AcDbEntity
8
0
100
AcDbLine
10
-67.498610231604161
20
204.78825857895379
30
0
11
-68.597243044104161
21
202.66423514145384
31
0
0
SPLINE
5
1055
100
AcDbEntity
8
0
100
AcDbSpline
70
0
71
3
72
9
73
5
74
0
42
0.000000001
43
0.0000000001
44
0.0000000001
40
0
40
0
40
0
40
0
40
0.20940396265153471
40
0.42112206654499718
40
0.42112206654499718
40
0.42112206654499718
40
0.42112206654499718
10
-68.597243044104161
20
202.66423514145384
30
0
10
-69.223649984014344
20
202.97312559684053
30
0
10
-70.483386340924071
20
203.59432008266282
30
0
10
-71.795169232335525
20
204.09639067422449
30
0
10
-72.454664919104161
20
204.34880545395384
30
0
0
LINE
5
1056
100
AcDbEntity
8
0
100
AcDbLine
10
-72.454664919104175
20
204.34880545395384
30
0
11
-71.453688356604161
21
206.35075857895384
31
0
0
SPLINE
5
1057
100
AcDbEntity
8
0
100
AcDbSpline
70
0
71
3
72
9
73
5
74
0
42
0.000000001
43
0.0000000001
44
0.0000000001
40
0
40
0
40
0
40
0
40
0.20931410402108808
40
0.4208940379906333
40
0.4208940379906333
40
0.4208940379906333
40
0.4208940379906333
10
-63.323805544104161
20
206.17986014145384
30
0
10
-62.664948515815091
20
205.94915866086421
30
0
10
-61.340102316883581
20
205.48525835089748
30
0
10
-60.060700301472359
20
204.90769595602856
30
0
10
-59.417555544104161
20
204.61736014145384
30
0
0
LINE
5
1058
100
AcDbEntity
8
0
100
AcDbLine
10
-59.417555544104168
20
204.61736014145387
30
0
11
-60.467360231604161
21
202.49333670395384
31
0
0
SPLINE
5
1059
100
AcDbEntity
8
0
100
AcDbSpline
70
0
71
3
72
9
73
5
74
0
42
0.000000001
43
0.0000000001
44
0.0000000001
40
0
40
0
40
0
40
0
40
0.21213295175038316
40
0.42113090948336074
40
0.42113090948336074
40
0.42113090948336074
40
0.42113090948336074
10
-60.467360231604161
20
202.49333670395384
30
0
10
-61.101700989021552
20
202.80677490415272
30
0
10
-62.361007937278671
20
203.42901917703639
30
0
10
-63.673447415890969
20
203.92951968308068
30
0
10
-64.324782106604161
20
204.17790701645384
30
0
0
LINE
5
1060
100
AcDbEntity
8
0
100
AcDbLine
10
-64.324782106604161
20
204.17790701645384
30
0
11
-63.323805544104161
21
206.17986014145384
31
0
0
SPLINE
5
1061
100
AcDbEntity
8
0
100
AcDbSpline
70
0
71
3
72
9
73
5
74
0
42
0.000000001
43
0.0000000001
44
0.0000000001
40
0
40
0
40
0
40
0
40
0.21253033870215027
40
0.42845508994982506
40
0.42845508994982506
40
0.42845508994982506
40
0.42845508994982506
10
-71.526930544104161
20
202.42009451645384
30
0
10
-70.864131637956717
20
202.16975645378497
30
0
10
-69.527947982078643
20
201.66508207264184
30
0
10
-68.211085821784764
20
201.1119417351012
30
0
10
-67.547438356604161
20
200.83318045395384
30
0
0
LINE
5
1062
100
AcDbEntity
8
0
100
AcDbLine
10
-67.547438356604161
20
200.83318045395379
30
0
11
-68.621657106604161
21
198.70915701645384
31
0
0
SPLINE
5
1063
100
AcDbEntity
8
0
100
AcDbSpline
70
0
71
3
72
9
73
5
74
0
42
0.000000001
43
0.0000000001
44
0.0000000001
40
0
40
0
40
0
40
0
40
0.21515303803971161
40
0.42879788207275771
40
0.42879788207275771
40
0.42879788207275771
40
0.42879788207275771
10
-68.621657106604161
20
198.70915701645384
30
0
10
-69.266430736186919
20
199.02407268707924
30
0
10
-70.551458218487312
20
199.65169651161844
30
0
10
-71.886932589475919
20
200.16325953170437
30
0
10
-72.552321169104161
20
200.41814139145384
30
0
0
LINE
5
1064
100
AcDbEntity
8
0
100
AcDbLine
10
-72.552321169104147
20
200.41814139145384
30
0
11
-71.526930544104161
21
202.42009451645384
31
0
0
SPLINE
5
1065
100
AcDbEntity
8
0
100
AcDbSpline
70
0
71
3
72
9
73
5
74
0
42
0.000000001
43
0.0000000001
44
0.0000000001
40
0
40
0
40
0
40
0
40
0.2072366019935141
40
0.43076614395188795
40
0.43076614395188795
40
0.43076614395188795
40
0.43076614395188795
10
-63.299391481604161
20
202.22478201645384
30
0
10
-62.650149714206442
20
201.98841279721594
30
0
10
-61.300622796933524
20
201.49709101264426
30
0
10
-59.980508060263119
20
200.9314076194064
30
0
10
-59.295485231604161
20
200.63786795395384
30
0
0
LINE
5
1066
100
AcDbEntity
8
0
100
AcDbLine
10
-59.295485231604168
20
200.63786795395387
30
0
11
-60.394118044104161
21
198.51384451645384
31
0
0
SPLINE
5
1067
100
AcDbEntity
8
0
100
AcDbSpline
70
0
71
3
72
9
73
5
74
0
42
0.000000001
43
0.0000000001
44
0.0000000001
40
0
40
0
40
0
40
0
40
0.21404899638109318
40
0.42882771328950575
40
0.42882771328950575
40
0.42882771328950575
40
0.42882771328950575
10
-60.394118044104161
20
198.51384451645384
30
0
10
-61.034542708191388
20
198.82939978179843
30
0
10
-62.317575326320423
20
199.46158608092617
30
0
10
-63.654954589954528
20
199.96879358908649
30
0
10
-64.324782106604161
20
200.22282889145384
30
0
0
LINE
5
1068
100
AcDbEntity
8
0
100
AcDbLine
10
-64.324782106604161
20
200.22282889145384
30
0
11
-63.299391481604161
21
202.22478201645384
31
0
0
SPLINE
5
1069
100
AcDbEntity
8
0
100
AcDbSpline
70
0
71
3
72
9
73
5
74
0
42
0.000000001
43
0.0000000001
44
0.0000000001
40
0
40
0
40
0
40
0
40
0.36630908922300742
40
0.71703188282502506
40
0.71703188282502506
40
0.71703188282502506
40
0.71703188282502506
10
-44.695875856604161
20
203.54314139145384
30
0
10
-44.113395715852363
20
204.62001203790999
30
0
10
-42.973219716077544
20
206.72793294379105
30
0
10
-42.261028032079508
20
209.01584747625498
30
0
10
-41.912672731604161
20
210.13493826645384
30
0
0
LINE
5
1070
100
AcDbEntity
8
0
100
AcDbLine
10
-41.912672731604168
20
210.13493826645384
30
0
11
-44.524977419104161
21
210.13493826645384
31
0
0
LINE
5
1071
100
AcDbEntity
8
0
100
AcDbLine
10
-44.524977419104161
20
210.13493826645384
30
0
11
-44.524977419104161
21
213.33318045395384
31
0
0
LINE
5
1072
100
AcDbEntity
8
0
100
AcDbLine
10
-44.524977419104161
20
213.33318045395384
30
0
11
-41.717360231604161
21
213.33318045395384
31
0
0
LINE
5
1073
100
AcDbEntity
8
0
100
AcDbLine
10
-41.717360231604161
20
213.33318045395384
30
0
11
-41.717360231604161
21
217.60564139145384
31
0
0
LINE
5
1074
100
AcDbEntity
8
0
100
AcDbLine
10
-41.717360231604161
20
217.60564139145384
30
0
11
-38.714430544104161
21
217.60564139145384
31
0
0
LINE
5
1075
100
AcDbEntity
8
0
100
AcDbLine
10
-38.714430544104161
20
217.60564139145384
30
0
11
-38.714430544104161
21
213.33318045395384
31
0
0
LINE
5
1076
100
AcDbEntity
8
0
100
AcDbLine
10
-38.714430544104161
20
213.33318045395384
30
0
11
-36.370680544104161
21
213.33318045395384
31
0
0
LINE
5
1077
100
AcDbEntity
8
0
100
AcDbLine
10
-36.370680544104161
20
213.33318045395384
30
0
11
-36.370680544104161
21
210.13493826645384
31
0
0
LINE
5
1078
100
AcDbEntity
8
0
100
AcDbLine
10
-36.370680544104161
20
210.13493826645384
30
0
11
-38.714430544104161
21
210.13493826645384
31
0
0
LINE
5
1079
100
AcDbEntity
8
0
100
AcDbLine
10
-38.714430544104161
20
210.13493826645384
30
0
11
-38.714430544104161
21
207.31511404770384
31
0
0
SPLINE
5
1080
100
AcDbEntity
8
0
100
AcDbSpline
70
0
71
3
72
9
73
5
74
0
42
0.000000001
43
0.0000000001
44
0.0000000001
40
0
40
0
40
0
40
0
40
0.17669677734375
40
0.34612871108767257
40
0.34612871108767257
40
0.34612871108767257
40
0.34612871108767257
10
-38.714430544104161
20
207.31511404770384
30
0
10
-38.200847556158763
20
207.02674531875209
30
0
10
-37.194797415763361
20
206.46186406867773
30
0
10
-36.198965923717921
20
205.87915968556345
30
0
10
-35.711500856604161
20
205.59392264145384
30
0
0
LINE
5
1081
100
AcDbEntity
8
0
100
AcDbLine
10
-35.711500856604161
20
205.59392264145384
30
0
11
-37.225172731604161
21
202.83513357895384
31
0
0
SPLINE
5
1082
100
AcDbEntity
8
0
100
AcDbSpline
70
0
71
3
72
9
73
5
74
0
42
0.000000001
43
0.0000000001
44
0.0000000001
40
0
40
0
40
0
40
0
40
0.079977018214353962
40
0.18513122242842545
40
0.18513122242842545
40
0.18513122242842545
40
0.18513122242842545
10
-37.225172731604161
20
202.83513357895384
30
0
10
-37.432863384219928
20
203.00243501036698
30
0
10
-37.913626799313285
20
203.38970524377982
30
0
10
-38.42434405409638
20
203.73668341112938
30
0
10
-38.714430544104161
20
203.93376639145384
30
0
0
LINE
5
1083
100
AcDbEntity
8
0
100
AcDbLine
10
-38.714430544104154
20
203.93376639145384
30
0
11
-38.714430544104161
21
193.60661795395384
31
0
0
LINE
5
1084
100
AcDbEntity
8
0
100
AcDbLine
10
-38.714430544104161
20
193.60661795395384
30
0
11
-41.717360231604161
21
193.60661795395384
31
0
0
LINE
5
1085
100
AcDbEntity
8
0
100
AcDbLine
10
-41.717360231604161
20
193.60661795395384
30
0
11
-41.717360231604161
21
203.66521170395384
31
0
0
SPLINE
5
1086
100
AcDbEntity
8
0
100
AcDbSpline
70
0
71
3
72
9
73
5
74
0
42
0.000000001
43
0.0000000001
44
0.0000000001
40
0
40
0
40
0
40
0
40
0.25533713120390783
40
0.50924631556946376
40
0.50924631556946376
40
0.50924631556946376
40
0.50924631556946376
10
-41.717360231604161
20
203.66521170395384
30
0
10
-42.04025014501552
20
202.87685645638746
30
0
10
-42.684224242961982
20
201.30455475749187
30
0
10
-43.505259390414039
20
199.81703987158136
30
0
10
-43.914625856604161
20
199.07536795395384
30
0
0
SPLINE
5
1087
100
AcDbEntity
8
0
100
AcDbSpline
70
0
71
3
72
9
73
5
74
0
42
0.000000001
43
0.0000000001
44
0.0000000001
40
0
40
0
40
0
40
0
40
0.24202344321558109
40
0.4535655187236789
40
0.4535655187236789
40
0.4535655187236789
40
0.4535655187236789
10
-43.914625856604161
20
199.07536795395384
30
0
10
-44.046225170854363
20
199.87132895128624
30
0
10
-44.292849673169236
20
201.3630045420567
30
0
10
-44.567690588435021
20
202.84973377137419
30
0
10
-44.695875856604161
20
203.54314139145384
30
0
0
LWPOLYLINE
5
1088
100
AcDbEntity
8
0
100
AcDbPolyline
90
4
70
1
43
0.0
10
-21.526930544104161
20
216.33611014145384
10
-35.320875856604161
20
216.33611014145384
10
-35.320875856604161
20
213.16228201645384
10
-21.526930544104161
20
213.16228201645384
0
LINE
5
1089
100
AcDbEntity
8
0
100
AcDbLine
10
-36.297438356604161
20
210.23259451645384
30
0
11
-20.599196169104161
21
210.23259451645384
31
0
0
LINE
5
1090
100
AcDbEntity
8
0
100
AcDbLine
10
-20.599196169104161
20
210.23259451645384
30
0
11
-20.599196169104161
21
207.05876639145384
31
0
0
LINE
5
1091
100
AcDbEntity
8
0
100
AcDbLine
10
-20.599196169104161
20
207.05876639145384
30
0
11
-26.751539919104161
21
207.05876639145384
31
0
0
LINE
5
1092
100
AcDbEntity
8
0
100
AcDbLine
10
-26.751539919104161
20
207.05876639145384
30
0
11
-26.751539919104161
21
196.60954764145384
31
0
0
SPLINE
5
1093
100
AcDbEntity
8
0
100
AcDbSpline
70
0
71
3
72
9
73
5
74
0
42
0.000000001
43
0.0000000001
44
0.0000000001
40
0
40
0
40
0
40
0
40
0.11690393551863121
40
0.21786559026920133
40
0.21786559026920133
40
0.21786559026920133
40
0.21786559026920133
10
-26.751539919104161
20
196.60954764145384
30
0
10
-26.771725042919279
20
196.20954343593965
30
0
10
-26.809342629488356
20
195.4640839100658
30
0
10
-27.261991556741336
20
194.87464459373231
30
0
10
-27.471754762854161
20
194.60149100082884
30
0
0
SPLINE
5
1094
100
AcDbEntity
8
0
100
AcDbSpline
70
0
71
3
72
9
73
5
74
0
42
0.000000001
43
0.0000000001
44
0.0000000001
40
0
40
0
40
0
40
0
40
0.10343455793051712
40
0.22498975311738778
40
0.22498975311738778
40
0.22498975311738778
40
0.22498975311738778
10
-27.471754762854161
20
194.60149100082884
30
0
10
-27.753742337266374
20
194.39254089829996
30
0
10
-28.367118717641986
20
193.9380348519415
30
0
10
-29.129146093052878
20
193.85759611494473
30
0
10
-29.540846559729161
20
193.81413748520384
30
0
0
SPLINE
5
1095
100
AcDbEntity
8
0
100
AcDbSpline
70
0
71
3
72
9
73
5
74
0
42
0.000000001
43
0.0000000001
44
0.0000000001
40
0
40
0
40
0
40
0
40
0.15958308083613451
40
0.3681816660338923
40
0.3681816660338923
40
0.3681816660338923
40
0.3681816660338923
10
-29.540846559729161
20
193.81413748520384
30
0
10
-30.072274093329725
20
193.78932617206141
30
0
10
-31.298355665838322
20
193.73208281918579
30
0
10
-32.525825757387821
20
193.72991594180462
30
0
10
-33.221266481604161
20
193.72868826645384
30
0
0
SPLINE
5
1096
100
AcDbEntity
8
0
100
AcDbSpline
70
0
71
3
72
9
73
5
74
0
42
0.000000001
43
0.0000000001
44
0.0000000001
40
0
40
0
40
0
40
0
40
0.18675760479396686
40
0.34572343197259836
40
0.34572343197259836
40
0.34572343197259836
40
0.34572343197259836
10
-33.221266481604161
20
193.72868826645384
30
0
10
-33.329171549097495
20
194.34185392861806
30
0
10
-33.528924112331467
20
195.47693882823984
30
0
10
-33.769724584459418
20
196.60400895835744
30
0
10
-33.880446169104161
20
197.12224295395384
30
0
0
SPLINE
5
1097
100
AcDbEntity
8
0
100
AcDbSpline
70
0
71
3
72
9
73
5
74
0
42
0.000000001
43
0.0000000001
44
0.0000000001
40
0
40
0
40
0
40
0
40
0.12302180443535761
40
0.23231734812789784
40
0.23231734812789784
40
0.23231734812789784
40
0.23231734812789784
10
-33.880446169104161
20
197.12224295395384
30
0
10
-33.471769369306521
20
197.08667685431237
30
0
10
-32.700014225524114
20
197.0195129723495
30
0
10
-31.925490892315629
20
197.00636038211309
30
0
10
-31.561110231604161
20
197.00017264145384
30
0
0
SPLINE
5
1098
100
AcDbEntity
8
0
100
AcDbSpline
70
0
71
3
72
9
73
5
74
0
42
0.000000001
43
0.0000000001
44
0.0000000001
40
0
40
0
40
0
40
0
40
0.11119794763688215
40
0.21622099042124465
40
0.21622099042124465
40
0.21622099042124465
40
0.21622099042124465
10
-31.561110231604161
20
197.00017264145384
30
0
10
-31.148204742654535
20
197.04855255590419
30
0
10
-30.345322714088702
20
197.14262581212211
30
0
10
-30.21055439083467
20
197.93409764618528
30
0
10
-30.145094606604161
20
198.31853201645384
30
0
0
LINE
5
1099
100
AcDbEntity
8
0
100
AcDbLine
10
-30.145094606604161
20
198.31853201645384
30
0
11
-30.145094606604161
21
207.05876639145384
31
0
0
LINE
5
1100
100
AcDbEntity
8
0
100
AcDbLine
10
-30.145094606604161
20
207.05876639145384
30
0
11
-36.297438356604161
21
207.05876639145384
31
0
0
LINE
5
1101
100
AcDbEntity
8
0
100
AcDbLine
10
-36.297438356604161
20
207.05876639145384
30
0
11
-36.297438356604161
21
210.23259451645384
31
0
0
LINE
5
1102
100
AcDbEntity
8
0
100
AcDbLine
10
-34.344313356604161
20
205.52068045395384
30
0
11
-31.439039919104161
21
204.69060232895384
31
0
0
SPLINE
5
1103
100
AcDbEntity
8
0
100
AcDbSpline
70
0
71
3
72
9
73
5
74
0
42
0.000000001
43
0.0000000001
44
0.0000000001
40
0
40
0
40
0
40
0
40
0.46632537012729219
40
0.87334246376654168
40
0.87334246376654168
40
0.87334246376654168
40
0.87334246376654168
10
-31.439039919104161
20
204.69060232895384
30
0
10
-31.918279445362636
20
203.21091323924884
30
0
10
-32.815807770880589
20
200.43972514185086
30
0
10
-33.958330471337078
20
197.76052148769335
30
0
10
-34.490797731604161
20
196.51189139145384
30
0
0
SPLINE
5
1104
100
AcDbEntity
8
0
100
AcDbSpline
70
0
71
3
72
9
73
5
74
0
42
0.000000001
43
0.0000000001
44
0.0000000001
40
0
40
0
40
0
40
0
40
0.16386547064990073
40
0.3113433838387577
40
0.3113433838387577
40
0.3113433838387577
40
0.3113433838387577
10
-34.490797731604161
20
196.51189139145384
30
0
10
-34.982219026632251
20
196.75212928781741
30
0
10
-35.915916457077223
20
197.20857980959903
30
0
10
-36.903741614173342
20
197.53102822101297
30
0
10
-37.371657106604161
20
197.68376639145384
30
0
0
SPLINE
5
1105
100
AcDbEntity
8
0
100
AcDbSpline
70
0
71
3
72
9
73
5
74
0
42
0.000000001
43
0.0000000001
44
0.0000000001
40
0
40
0
40
0
40
0
40
0.39310478828641554
40
0.84072557218026489
40
0.84072557218026489
40
0.84072557218026489
40
0.84072557218026489
10
-37.371657106604161
20
197.68376639145384
30
0
10
-36.829310476217081
20
198.87778803378654
30
0
10
-35.669404276295666
20
201.43141891887868
30
0
10
-34.804700606823388
20
204.0999146441641
30
0
10
-34.344313356604161
20
205.52068045395384
30
0
0
SPLINE
5
1106
100
AcDbEntity
8
0
100
AcDbSpline
70
0
71
3
72
9
73
5
74
0
42
0.000000001
43
0.0000000001
44
0.0000000001
40
0
40
0
40
0
40
0
40
0.40677539156982301
40
0.8284792959597117
40
0.8284792959597117
40
0.8284792959597117
40
0.8284792959597117
10
-23.187086794104161
20
205.32536795395384
30
0
10
-22.675378960044988
20
204.06951799565826
30
0
10
-21.633183795626756
20
201.51172883032916
30
0
10
-20.705291371379772
20
198.91027505406959
30
0
10
-20.232985231604161
20
197.58611014145384
30
0
0
LINE
5
1107
100
AcDbEntity
8
0
100
AcDbLine
10
-20.232985231604161
20
197.58611014145379
30
0
11
-23.235914919104161
21
196.43864920395384
31
0
0
SPLINE
5
1108
100
AcDbEntity
8
0
100
AcDbSpline
70
0
71
3
72
9
73
5
74
0
42
0.000000001
43
0.0000000001
44
0.0000000001
40
0
40
0
40
0
40
0
40
0.43584144791998713
40
0.83425938776662756
40
0.83425938776662756
40
0.83425938776662756
40
0.83425938776662756
10
-23.235914919104161
20
196.43864920395384
30
0
10
-23.697160891610778
20
197.81661503196861
30
0
10
-24.58004797008762
20
200.45422770861791
30
0
10
-25.603560509129444
20
203.0404560682355
30
0
10
-26.092360231604161
20
204.27556326645384
30
0
0
LINE
5
1109
100
AcDbEntity
8
0
100
AcDbLine
10
-26.092360231604161
20
204.27556326645384
30
0
11
-23.187086794104161
21
205.32536795395384
31
0
0
LINE
5
1110
100
AcDbEntity
8
0
100
AcDbLine
10
-7.6353289816041592
20
217.60564139145384
30
0
11
-3.9976336691041592
21
217.04411795395384
31
0
0
LINE
5
1111
100
AcDbEntity
8
0
100
AcDbLine
10
-3.9976336691041592
20
217.04411795395384
30
0
11
-5.0962664816041592
21
213.72380545395384
31
0
0
LINE
5
1112
100
AcDbEntity
8
0
100
AcDbLine
10
-5.0962664816041592
20
213.72380545395384
30
0
11
-0.94587585660415918
21
213.72380545395384
31
0
0
LINE
5
1113
100
AcDbEntity
8
0
100
AcDbLine
10
-0.94587585660415918
20
213.72380545395384
30
0
11
-0.94587585660415918
21
208.96306326645384
31
0
0
SPLINE
5
1114
100
AcDbEntity
8
0
100
AcDbSpline
70
0
71
3
72
9
73
5
74
0
42
0.000000001
43
0.0000000001
44
0.0000000001
40
0
40
0
40
0
40
0
40
0.42772582232838646
40
0.94828271542967735
40
0.94828271542967735
40
0.94828271542967735
40
0.94828271542967735
10
-0.94587585660415918
20
208.96306326645384
30
0
10
-0.27395395245644494
20
210.22303961069409
30
0
10
1.2157197931064001
20
213.01645007768241
30
0
10
2.24749818135491
20
216.01075499843037
30
0
10
2.8138897683958408
20
217.65446951645384
30
0
0
LINE
5
1115
100
AcDbEntity
8
0
100
AcDbLine
10
2.8138897683958408
20
217.65446951645384
30
0
11
6.1830303933958408
21
216.77556326645384
31
0
0
SPLINE
5
1116
100
AcDbEntity
8
0
100
AcDbSpline
70
0
71
3
72
9
73
5
74
0
42
0.000000001
43
0.0000000001
44
0.0000000001
40
0
40
0
40
0
40
0
40
0.16985986389252619
40
0.33752111622631353
40
0.33752111622631353
40
0.33752111622631353
40
0.33752111622631353
10
6.1830303933958408
20
216.77556326645384
30
0
10
6.0016132440614545
20
216.23914207137011
30
0
10
5.6411271507446958
20
215.17324294497809
30
0
10
5.2365435353517409
20
214.12329128194659
30
0
10
5.0355694558958408
20
213.60173514145384
30
0
0
LINE
5
1117
100
AcDbEntity
8
0
100
AcDbLine
10
5.0355694558958408
20
213.60173514145384
30
0
11
11.334397580895841
21
213.60173514145384
31
0
0
LINE
5
1118
100
AcDbEntity
8
0
100
AcDbLine
10
11.334397580895841
20
213.60173514145384
30
0
11
11.053635862145841
21
199.55144217270384
31
0
0
SPLINE
5
1119
100
AcDbEntity
8
0
100
AcDbSpline
70
0
71
3
72
9
73
5
74
0
42
0.000000001
43
0.0000000001
44
0.0000000001
40
0
40
0
40
0
40
0
40
0.1934287905118941
40
0.32093941618067484
40
0.32093941618067484
40
0.32093941618067484
40
0.32093941618067484
10
11.053635862145841
20
199.55144217270384
30
0
10
11.037956742343917
20
198.90456469267389
30
0
10
11.011941754905239
20
197.83125766205126
30
0
10
10.77096071032499
20
196.78656963006296
30
0
10
10.675217893395841
20
196.37151053207884
30
0
0
SPLINE
5
1120
100
AcDbEntity
8
0
100
AcDbSpline
70
0
71
3
72
9
73
5
74
0
42
0.000000001
43
0.0000000001
44
0.0000000001
40
0
40
0
40
0
40
0
40
0.091988733352314084
40
0.1798673041419746
40
0.1798673041419746
40
0.1798673041419746
40
0.1798673041419746
10
10.675217893395841
20
196.37151053207884
30
0
10
10.557334273440082
20
196.08465868608153
30
0
10
10.32683420945145
20
195.52377186497407
30
0
10
9.8966334603458161
20
195.09691002680145
30
0
10
9.6864483621458408
20
194.88835623520384
30
0
0
SPLINE
5
1121
100
AcDbEntity
8
0
100
AcDbSpline
70
0
71
3
72
9
73
5
74
0
42
0.000000001
43
0.0000000001
44
0.0000000001
40
0
40
0
40
0
40
0
40
0.09376212379423067
40
0.20482860529461955
40
0.20482860529461955
40
0.20482860529461955
40
0.20482860529461955
10
9.6864483621458408
20
194.88835623520384
30
0
10
9.4259439494955988
20
194.71010567408538
30
0
10
8.8568574851856763
20
194.32070735044027
30
0
10
8.1797983391067763
20
194.18220687875791
30
0
10
7.8126690652708408
20
194.10710623520384
30
0
0
SPLINE
5
1122
100
AcDbEntity
8
0
100
AcDbSpline
70
0
71
3
72
9
73
5
74
0
42
0.000000001
43
0.0000000001
44
0.0000000001
40
0
40
0
40
0
40
0
40
0.19182507031901305
40
0.52496483429496044
40
0.52496483429496044
40
0.52496483429496044
40
0.52496483429496044
10
7.8126690652708408
20
194.10710623520384
30
0
10
7.1757313058698902
20
194.04756704289338
30
0
10
5.4326331552264318
20
193.88462701543324
30
0
10
3.6811993161528189
20
193.89377894215772
30
0
10
2.5697491433958408
20
193.89958670395384
30
0
0
SPLINE
5
1123
100
AcDbEntity
8
0
100
AcDbSpline
70
0
71
3
72
9
73
5
74
0
42
0.000000001
43
0.0000000001
44
0.0000000001
40
0
40
0
40
0
40
0
40
0.20385468075673954
40
0.38052483886405303
40
0.38052483886405303
40
0.38052483886405303
40
0.38052483886405303
10
2.5697491433958408
20
193.89958670395384
30
0
10
2.447165942333358
20
194.56889040076283
30
0
10
2.2183463113168944
20
195.81824450160525
30
0
10
1.8247525628188654
20
197.02557190295167
30
0
10
1.6420147683958408
20
197.58611014145384
30
0
0
SPLINE
5
1124
100
AcDbEntity
8
0
100
AcDbSpline
70
0
71
3
72
9
73
5
74
0
42
0.000000001
43
0.0000000001
44
0.0000000001
40
0
40
0
40
0
40
0
40
0.18678577808139643
40
0.38487871339241625
40
0.38487871339241625
40
0.38487871339241625
40
0.38487871339241625
10
1.6420147683958408
20
197.58611014145384
30
0
10
2.263320365956849
20
197.54339576722487
30
0
10
3.5435425620417593
20
197.45538128579341
30
0
10
4.8267675228873497
20
197.44497946946888
30
0
10
5.4872296121458408
20
197.43962576645384
30
0
0
SPLINE
5
1125
100
AcDbEntity
8
0
100
AcDbSpline
70
0
71
3
72
9
73
5
74
0
42
0.000000001
43
0.0000000001
44
0.0000000001
40
0
40
0
40
0
40
0
40
0.054729513651030209
40
0.10249512935200281
40
0.10249512935200281
40
0.10249512935200281
40
0.10249512935200281
10
5.4872296121458408
20
197.43962576645384
30
0
10
5.6703209954337463
20
197.44353384165578
30
0
10
6.0132068309079312
20
197.45085272038529
30
0
10
6.3455376762521265
20
197.53478725443023
30
0
10
6.5004132058958408
20
197.57390311020384
30
0
0
SPLINE
5
1126
100
AcDbEntity
8
0
100
AcDbSpline
70
0
71
3
72
9
73
5
74
0
42
0.000000001
43
0.0000000001
44
0.0000000001
40
0
40
0
40
0
40
0
40
0.042436445379004352
40
0.081836636158971521
40
0.081836636158971521
40
0.081836636158971521
40
0.081836636158971521
10
6.5004132058958408
20
197.57390311020384
30
0
10
6.6346233167320623
20
197.62269890348793
30
0
10
6.8934410360595511
20
197.71679923506414
30
0
10
7.1019371808576093
20
197.89637974647366
30
0
10
7.2023175027708408
20
197.98283865707884
30
0
0
SPLINE
5
1127
100
AcDbEntity
8
0
100
AcDbSpline
70
0
71
3
72
9
73
5
74
0
42
0.000000001
43
0.0000000001
44
0.0000000001
40
0
40
0
40
0
40
0
40
0.03715193967626549
40
0.072616070440877117
40
0.072616070440877117
40
0.072616070440877117
40
0.072616070440877117
10
7.2023175027708408
20
197.98283865707884
30
0
10
7.2860906908465761
20
198.07580485686651
30
0
10
7.4498312594245153
20
198.25751381126372
30
0
10
7.5336813639298139
20
198.48714620235197
30
0
10
7.5746319558958408
20
198.59929373520384
30
0
0
SPLINE
5
1128
100
AcDbEntity
8
0
100
AcDbSpline
70
0
71
3
72
9
73
5
74
0
42
0.000000001
43
0.0000000001
44
0.0000000001
40
0
40
0
40
0
40
0
40
0.092587032774833933
40
0.30083523825027647
40
0.30083523825027647
40
0.30083523825027647
40
0.30083523825027647
10
7.5746319558958408
20
198.59929373520384
30
0
10
7.6070711625437237
20
198.90631354459205
30
0
10
7.7124731412883651
20
199.90388712197932
30
0
10
7.7247942671009273
20
200.90749352865873
30
0
10
7.7333233621458408
20
201.60222342270384
30
0
0
LINE
5
1129
100
AcDbEntity
8
0
100
AcDbLine
10
7.7333233621458408
20
201.60222342270384
30
0
11
7.8431866433958408
21
206.59489920395384
31
0
0
SPLINE
5
1130
100
AcDbEntity
8
0
100
AcDbSpline
70
0
71
3
72
9
73
5
74
0
42
0.000000001
43
0.0000000001
44
0.0000000001
40
0
40
0
40
0
40
0
40
0.21121339063170477
40
0.37845417381825908
40
0.37845417381825908
40
0.37845417381825908
40
0.37845417381825908
10
7.8431866433958408
20
206.59489920395384
30
0
10
7.857366026044792
20
207.29881370697416
30
0
10
7.8827727795162783
20
208.56009444718904
30
0
10
7.8891823481240753
20
209.82160922977189
30
0
10
7.8920147683958408
20
210.37907889145384
30
0
0
LINE
5
1131
100
AcDbEntity
8
0
100
AcDbLine
10
7.8920147683958408
20
210.37907889145379
30
0
11
3.6439678933958408
21
210.37907889145384
31
0
0
SPLINE
5
1132
100
AcDbEntity
8
0
100
AcDbSpline
70
0
71
3
72
9
73
5
74
0
42
0.000000001
43
0.0000000001
44
0.0000000001
40
0
40
0
40
0
40
0
40
0.18779794544562683
40
0.37348932112733013
40
0.37348932112733013
40
0.37348932112733013
40
0.37348932112733013
10
3.6439678933958408
20
210.37907889145384
30
0
10
3.3722027257293075
20
209.81501860065504
30
0
10
2.8317208384702308
20
208.6932252041116
30
0
10
2.2327698825174558
20
207.60153352763979
30
0
10
1.9349835183958408
20
207.05876639145384
30
0
0
SPLINE
5
1133
100
AcDbEntity
8
0
100
AcDbSpline
70
0
71
3
72
9
73
5
74
0
42
0.000000001
43
0.0000000001
44
0.0000000001
40
0
40
0
40
0
40
0
40
0.15027699574639969
40
0.32514804425141031
40
0.32514804425141031
40
0.32514804425141031
40
0.32514804425141031
10
1.9349835183958408
20
207.05876639145384
30
0
10
1.506135145339389
20
207.31859800259252
30
0
10
0.57825387457580923
20
207.88078478159233
30
0
10
-0.41284388240525161
20
208.32260928142787
30
0
10
-0.94587585660415918
20
208.56023123520384
30
0
0
LINE
5
1134
100
AcDbEntity
8
0
100
AcDbLine
10
-0.94587585660415907
20
208.56023123520384
30
0
11
-0.94587585660415918
21
194.02165701645384
31
0
0
LINE
5
1135
100
AcDbEntity
8
0
100
AcDbLine
10
-0.94587585660415918
20
194.02165701645384
30
0
11
-4.3394305441041592
21
194.02165701645384
31
0
0
LINE
5
1136
100
AcDbEntity
8
0
100
AcDbLine
10
-4.3394305441041592
20
194.02165701645384
30
0
11
-4.3394305441041592
21
195.77946951645384
31
0
0
LINE
5
1137
100
AcDbEntity
8
0
100
AcDbLine
10
-4.3394305441041592
20
195.77946951645384
30
0
11
-7.8062274191041592
21
195.77946951645384
31
0
0
LINE
5
1138
100
AcDbEntity
8
0
100
AcDbLine
10
-7.8062274191041592
20
195.77946951645384
30
0
11
-7.8062274191041592
21
193.87517264145384
31
0
0
LINE
5
1139
100
AcDbEntity
8
0
100
AcDbLine
10
-7.8062274191041592
20
193.87517264145384
30
0
11
-11.199782106604159
21
193.87517264145384
31
0
0
LINE
5
1140
100
AcDbEntity
8
0
100
AcDbLine
10
-11.199782106604159
20
193.87517264145384
30
0
11
-11.199782106604159
21
213.72380545395384
31
0
0
LINE
5
1141
100
AcDbEntity
8
0
100
AcDbLine
10
-11.199782106604159
20
213.72380545395384
30
0
11
-8.6240985128541592
21
213.72380545395384
31
0
0
SPLINE
5
1142
100
AcDbEntity
8
0
100
AcDbSpline
70
0
71
3
72
9
73
5
74
0
42
0.000000001
43
0.0000000001
44
0.0000000001
40
0
40
0
40
0
40
0
40
0.22486071414587183
40
0.40069414357919209
40
0.40069414357919209
40
0.40069414357919209
40
0.40069414357919209
10
-8.6240985128541592
20
213.72380545395384
30
0
10
-8.4138270611720767
20
214.44357118065034
30
0
10
-8.0391304870241687
20
215.72616922153901
30
0
10
-7.7584832015096072
20
217.03242676542339
30
0
10
-7.6353289816041592
20
217.60564139145384
30
0
0
LWPOLYLINE
5
1143
100
AcDbEntity
8
0
100
AcDbPolyline
90
4
70
1
43
0.0
10
-7.8062274191041592
20
210.52556326645384
10
-4.3394305441041592
20
210.52556326645384
10
-4.3394305441041592
20
206.35075857895384
10
-7.8062274191041592
20
206.35075857895384
0
LWPOLYLINE
5
1144
100
AcDbEntity
8
0
100
AcDbPolyline
90
4
70
1
43
0.0
10
-4.3394305441041592
20
198.97771170395384
10
-7.8062274191041592
20
198.97771170395384
10
-7.8062274191041592
20
203.15251639145384
10
-4.3394305441041592
20
203.15251639145384
0
SPLINE
5
1145
100
AcDbEntity
8
0
100
AcDbSpline
70
0
71
3
72
9
73
5
74
0
42
0.000000001
43
0.0000000001
44
0.0000000001
40
0
40
0
40
0
40
0
40
0.29560303499589163
40
0.63546857630346398
40
0.63546857630346398
40
0.63546857630346398
40
0.63546857630346398
10
2.8871319558958408
20
207.44939139145384
30
0
10
3.5048209734649394
20
206.68122123776985
30
0
10
4.8326894799515951
20
205.02985796970609
30
0
10
6.0306242055671877
20
203.28177416544105
30
0
10
6.6713116433958408
20
202.34685232895384
30
0
0
LINE
5
1146
100
AcDbEntity
8
0
100
AcDbLine
10
6.6713116433958408
20
202.34685232895384
30
0
11
3.5951397683958408
21
200.29607107895384
31
0
0
SPLINE
5
1147
100
AcDbEntity
8
0
100
AcDbSpline
70
0
71
3
72
9
73
5
74
0
42
0.000000001
43
0.0000000001
44
0.0000000001
40
0
40
0
40
0
40
0
40
0.33573663605987492
40
0.62934682456958435
40
0.62934682456958435
40
0.62934682456958435
40
0.62934682456958435
10
3.5951397683958408
20
200.29607107895384
30
0
10
3.0053290378338549
20
201.24791671099476
30
0
10
1.8997138904001343
20
203.03217544735307
30
0
10
0.64190726043173996
20
204.71239217374927
30
0
10
0.055100705895840818
20
205.49626639145384
30
0
0
LINE
5
1148
100
AcDbEntity
8
0
100
AcDbLine
10
0.055100705895840624
20
205.49626639145384
30
0
11
2.8871319558958408
21
207.44939139145384
31
0
0
SPLINE
5
1149
100
AcDbEntity
8
0
100
AcDbSpline
70
0
71
3
72
9
73
5
74
0
42
0.000000001
43
0.0000000001
44
0.0000000001
40
0
40
0
40
0
40
0
40
0.34701975409657554
40
0.70795343545707246
40
0.70795343545707246
40
0.70795343545707246
40
0.70795343545707246
10
20.221116330895839
20
203.56755545395384
30
0
10
20.81095971176633
20
204.56647735487675
30
0
10
22.014296533198888
20
206.60437342034066
30
0
10
22.775121734234169
20
208.84574330654601
30
0
10
23.163010862145839
20
209.98845389145384
30
0
0
LINE
5
1150
100
AcDbEntity
8
0
100
AcDbLine
10
23.163010862145839
20
209.98845389145384
30
0
11
20.465256955895839
21
209.98845389145384
31
0
0
LINE
5
1151
100
AcDbEntity
8
0
100
AcDbLine
10
20.465256955895839
20
209.98845389145384
30
0
11
20.465256955895839
21
212.86931326645384
31
0
0
LINE
5
1152
100
AcDbEntity
8
0
100
AcDbLine
10
20.465256955895839
20
212.86931326645384
30
0
11
23.443772580895839
21
212.86931326645384
31
0
0
LINE
5
1153
100
AcDbEntity
8
0
100
AcDbLine
10
23.443772580895839
20
212.86931326645384
30
0
11
23.443772580895839
21
217.60564139145384
31
0
0
LINE
5
1154
100
AcDbEntity
8
0
100
AcDbLine
10
23.443772580895839
20
217.60564139145384
30
0
11
26.617600705895839
21
217.60564139145384
31
0
0
LINE
5
1155
100
AcDbEntity
8
0
100
AcDbLine
10
26.617600705895839
20
217.60564139145384
30
0
11
26.617600705895839
21
212.86931326645384
31
0
0
LINE
5
1156
100
AcDbEntity
8
0
100
AcDbLine
10
26.617600705895839
20
212.86931326645384
30
0
11
28.961350705895839
21
212.86931326645384
31
0
0
LINE
5
1157
100
AcDbEntity
8
0
100
AcDbLine
10
28.961350705895839
20
212.86931326645384
30
0
11
28.961350705895839
21
211.56316092270384
31
0
0
SPLINE
5
1158
100
AcDbEntity
8
0
100
AcDbSpline
70
0
71
3
72
9
73
5
74
0
42
0.000000001
43
0.0000000001
44
0.0000000001
40
0
40
0
40
0
40
0
40
0.33164071508795029
40
0.67174745138360059
40
0.67174745138360059
40
0.67174745138360059
40
0.67174745138360059
10
28.961350705895839
20
211.56316092270384
30
0
10
29.592200914974541
20
212.4768260932066
30
0
10
30.87000548140437
20
214.32748019501193
30
0
10
31.645094071815755
20
216.43894656823065
30
0
10
32.037522580895839
20
217.50798514145384
30
0
0
LINE
5
1159
100
AcDbEntity
8
0
100
AcDbLine
10
32.037522580895839
20
217.50798514145384
30
0
11
35.406663205895839
21
217.23943045395384
31
0
0
SPLINE
5
1160
100
AcDbEntity
8
0
100
AcDbSpline
70
0
71
3
72
9
73
5
74
0
42
0.000000001
43
0.0000000001
44
0.0000000001
40
0
40
0
40
0
40
0
40
0.12637962504148209
40
0.25076262472195421
40
0.25076262472195421
40
0.25076262472195421
40
0.25076262472195421
10
35.406663205895839
20
217.23943045395384
30
0
10
35.257817969268601
20
216.84523382701963
30
0
10
34.962479047335925
20
216.0630683411344
30
0
10
34.622935020786471
20
215.29905805387077
30
0
10
34.454514768395839
20
214.92009451645384
30
0
0
LINE
5
1161
100
AcDbEntity
8
0
100
AcDbLine
10
34.454514768395839
20
214.92009451645384
30
0
11
43.585374143395839
21
214.92009451645384
31
0
0
SPLINE
5
1162
100
AcDbEntity
8
0
100
AcDbSpline
70
0
71
3
72
9
73
5
74
0
42
0.000000001
43
0.0000000001
44
0.0000000001
40
0
40
0
40
0
40
0
40
0.5026263877958711
40
0.93874203932990974
40
0.93874203932990974
40
0.93874203932990974
40
0.93874203932990974
10
43.585374143395839
20
214.92009451645384
30
0
10
43.583808178465937
20
213.24466113741093
30
0
10
43.580883467094786
20
210.11549843287952
30
0
10
43.546442772592464
20
206.98652764916636
30
0
10
43.530442502770839
20
205.53288748520384
30
0
0
SPLINE
5
1163
100
AcDbEntity
8
0
100
AcDbSpline
70
0
71
3
72
9
73
5
74
0
42
0.000000001
43
0.0000000001
44
0.0000000001
40
0
40
0
40
0
40
0
40
0.36230033810207818
40
0.64348798473174484
40
0.64348798473174484
40
0.64348798473174484
40
0.64348798473174484
10
43.530442502770839
20
205.53288748520384
30
0
10
43.513028820039594
20
204.32531583952999
30
0
10
43.482100072729615
20
202.18052666057281
30
0
10
43.413802433820081
20
200.0366157633012
30
0
10
43.383958127770839
20
199.09978201645384
30
0
0
SPLINE
5
1164
100
AcDbEntity
8
0
100
AcDbSpline
70
0
71
3
72
9
73
5
74
0
42
0.000000001
43
0.0000000001
44
0.0000000001
40
0
40
0
40
0
40
0
40
0.21388887487040065
40
0.3868452801151866
40
0.3868452801151866
40
0.3868452801151866
40
0.3868452801151866
10
43.383958127770839
20
199.09978201645384
30
0
10
43.335536053388395
20
198.37499849163052
30
0
10
43.247958562789208
20
197.06413514797586
30
0
10
42.55743397941697
20
195.95283803764758
30
0
10
42.248704221520839
20
195.45598318832884
30
0
0
SPLINE
5
1165
100
AcDbEntity
8
0
100
AcDbSpline
70
0
71
3
72
9
73
5
74
0
42
0.000000001
43
0.0000000001
44
0.0000000001
40
0
40
0
40
0
40
0
40
0.15182157733178164
40
0.30006454146491851
40
0.30006454146491851
40
0.30006454146491851
40
0.30006454146491851
10
42.248704221520839
20
195.45598318832884
30
0
10
41.883087615143594
20
195.08832806208741
30
0
10
41.160472415956207
20
194.36168387348323
30
0
10
40.156709529123901
20
194.15860605279227
30
0
10
39.660813596520839
20
194.05827811020384
30
0
0
SPLINE
5
1166
100
AcDbEntity
8
0
100
AcDbSpline
70
0
71
3
72
9
73
5
74
0
42
0.000000001
43
0.0000000001
44
0.0000000001
40
0
40
0
40
0
40
0
40
0.21187887690733057
40
0.53796276929591569
40
0.53796276929591569
40
0.53796276929591569
40
0.53796276929591569
10
39.660813596520839
20
194.05827811020384
30
0
10
38.955504588266294
20
194.01744724036456
30
0
10
37.164717357239326
20
193.9137772184533
30
0
10
35.370919457793264
20
193.95054329018024
30
0
10
34.283616330895839
20
193.97282889145384
30
0
0
SPLINE
5
1167
100
AcDbEntity
8
0
100
AcDbSpline
70
0
71
3
72
9
73
5
74
0
42
0.000000001
43
0.0000000001
44
0.0000000001
40
0
40
0
40
0
40
0
40
0.18458266443973814
40
0.34671345548205357
40
0.34671345548205357
40
0.34671345548205357
40
0.34671345548205357
10
34.283616330895839
20
193.97282889145384
30
0
10
34.173157403816042
20
194.57823245931746
30
0
10
33.965675317603193
20
195.71540080398447
30
0
10
33.699893776894491
20
196.84033824164018
30
0
10
33.575608518395839
20
197.36638357895384
30
0
0
SPLINE
5
1168
100
AcDbEntity
8
0
100
AcDbSpline
70
0
71
3
72
9
73
5
74
0
42
0.000000001
43
0.0000000001
44
0.0000000001
40
0
40
0
40
0
40
0
40
0.24165143397983363
40
0.43277043192723569
40
0.43277043192723569
40
0.43277043192723569
40
0.43277043192723569
10
33.575608518395839
20
197.36638357895384
30
0
10
34.378807440923971
20
197.30257931577592
30
0
10
35.817246017104736
20
197.18831308495101
30
0
10
37.259828087618196
20
197.15941771680934
30
0
10
37.896897580895839
20
197.14665701645384
30
0
0
SPLINE
5
1169
100
AcDbEntity
8
0
100
AcDbSpline
70
0
71
3
72
9
73
5
74
0
42
0.000000001
43
0.0000000001
44
0.0000000001
40
0
40
0
40
0
40
0
40
0.093633405383560062
40
0.17726897045147144
40
0.17726897045147144
40
0.17726897045147144
40
0.17726897045147144
10
37.896897580895839
20
197.14665701645384
30
0
10
38.215436899692719
20
197.16391875644919
30
0
10
38.818503047507427
20
197.1965990895487
30
0
10
39.31615699901095
20
197.53589397275982
30
0
10
39.550950315270839
20
197.69597342270384
30
0
0
SPLINE
5
1170
100
AcDbEntity
8
0
100
AcDbSpline
70
0
71
3
72
9
73
5
74
0
42
0.000000001
43
0.0000000001
44
0.0000000001
40
0
40
0
40
0
40
0
40
0.099760861301729092
40
0.2536576068207238
40
0.2536576068207238
40
0.2536576068207238
40
0.2536576068207238
10
39.550950315270839
20
197.69597342270384
30
0
10
39.734000129169324
20
197.9803706197491
30
0
10
40.199432936350455
20
198.7034950139024
30
0
10
40.202291914778449
20
199.57313738178297
30
0
10
40.204026487145839
20
200.10075857895384
30
0
0
LINE
5
1171
100
AcDbEntity
8
0
100
AcDbLine
10
40.204026487145839
20
200.10075857895379
30
0
11
38.580491330895839
21
199.27068045395384
31
0
0
LINE
5
1172
100
AcDbEntity
8
0
100
AcDbLine
10
38.580491330895839
20
199.27068045395384
30
0
11
38.067796018395839
21
200.32048514145384
31
0
0
SPLINE
5
1173
100
AcDbEntity
8
0
100
AcDbSpline
70
0
71
3
72
9
73
5
74
0
42
0.000000001
43
0.0000000001
44
0.0000000001
40
0
40
0
40
0
40
0
40
0.50931890506440791
40
0.86556402037799585
40
0.86556402037799585
40
0.86556402037799585
40
0.86556402037799585
10
38.067796018395839
20
200.32048514145384
30
0
10
36.373488371363976
20
200.19567927842195
30
0
10
33.494090563547203
20
199.98357746264708
30
0
10
30.646177729248187
20
199.51313235302518
30
0
10
29.474046018395839
20
199.31950857895384
30
0
0
LINE
5
1174
100
AcDbEntity
8
0
100
AcDbLine
10
29.474046018395839
20
199.31950857895384
30
0
11
28.473069455895839
21
202.10271170395384
31
0
0
SPLINE
5
1175
100
AcDbEntity
8
0
100
AcDbSpline
70
0
71
3
72
9
73
5
74
0
42
0.000000001
43
0.0000000001
44
0.0000000001
40
0
40
0
40
0
40
0
40
0.34791377527021511
40
0.95627631804301116
40
0.95627631804301116
40
0.95627631804301116
40
0.95627631804301116
10
28.473069455895839
20
202.10271170395384
30
0
10
29.215744324536857
20
203.00087363646131
30
0
10
31.257061568545062
20
205.46956285452279
30
0
10
32.420447931665642
20
208.47016192996796
30
0
10
33.160569455895839
20
210.37907889145384
30
0
0
LINE
5
1176
100
AcDbEntity
8
0
100
AcDbLine
10
33.160569455895839
20
210.37907889145379
30
0
11
36.285569455895839
21
209.10954764145384
31
0
0
LINE
5
1177
100
AcDbEntity
8
0
100
AcDbLine
10
36.285569455895839
20
209.10954764145384
30
0
11
32.452561643395839
21
202.56657889145384
31
0
0
LINE
5
1178
100
AcDbEntity
8
0
100
AcDbLine
10
32.452561643395839
20
202.56657889145384
30
0
11
36.786057737145839
21
202.84734061020384
31
0
0
SPLINE
5
1179
100
AcDbEntity
8
0
100
AcDbSpline
70
0
71
3
72
9
73
5
74
0
42
0.000000001
43
0.0000000001
44
0.0000000001
40
0
40
0
40
0
40
0
40
0.17978609531370762
40
0.36428044135596832
40
0.36428044135596832
40
0.36428044135596832
40
0.36428044135596832
10
36.786057737145839
20
202.84734061020384
30
0
10
36.507976267010108
20
203.37822060865324
30
0
10
35.944530909919486
20
204.45388332775707
30
0
10
35.360603571327303
20
205.51856738680382
30
0
10
35.064866330895839
20
206.05778982895384
30
0
0
LINE
5
1180
100
AcDbEntity
8
0
100
AcDbLine
10
35.064866330895839
20
206.05778982895384
30
0
11
37.579514768395839
21
207.37614920395384
31
0
0
SPLINE
5
1181
100
AcDbEntity
8
0
100
AcDbSpline
70
0
71
3
72
9
73
5
74
0
42
0.000000001
43
0.0000000001
44
0.0000000001
40
0
40
0
40
0
40
0
40
0.26608983207770598
40
0.5419326144929788
40
0.5419326144929788
40
0.5419326144929788
40
0.5419326144929788
10
37.579514768395839
20
207.37614920395384
30
0
10
38.034551134356136
20
206.61471568287024
30
0
10
38.961302245320162
20
205.06393993311173
30
0
10
39.833381706656034
20
203.48176601557191
30
0
10
40.277268674645839
20
202.67644217270384
30
0
0
SPLINE
5
1182
100
AcDbEntity
8
0
100
AcDbSpline
70
0
71
3
72
9
73
5
74
0
42
0.000000001
43
0.0000000001
44
0.0000000001
40
0
40
0
40
0
40
0
40
0.41356284205834903
40
0.921685008394315
40
0.921685008394315
40
0.921685008394315
40
0.921685008394315
10
40.277268674645839
20
202.67644217270384
30
0
10
40.302123387556705
20
204.054785048106
30
0
10
40.357515734131837
20
207.12662283305394
30
0
10
40.36086915988718
20
210.19897324641141
30
0
10
40.362717893395839
20
211.89275076645384
30
0
0
LINE
5
1183
100
AcDbEntity
8
0
100
AcDbLine
10
40.362717893395853
20
211.89275076645384
30
0
11
32.867600705895839
21
211.89275076645384
31
0
0
SPLINE
5
1184
100
AcDbEntity
8
0
100
AcDbSpline
70
0
71
3
72
9
73
5
74
0
42
0.000000001
43
0.0000000001
44
0.0000000001
40
0
40
0
40
0
40
0
40
0.24497309853331348
40
0.48742099621527046
40
0.48742099621527046
40
0.48742099621527046
40
0.48742099621527046
10
32.867600705895839
20
211.89275076645384
30
0
10
32.437637495736105
20
211.19755213962083
30
0
10
31.582143168045789
20
209.81432104491211
30
0
10
30.56561461197947
20
208.54475363524071
30
0
10
30.059983518395839
20
207.91325857895384
30
0
0
SPLINE
5
1185
100
AcDbEntity
8
0
100
AcDbSpline
70
0
71
3
72
9
73
5
74
0
42
0.000000001
43
0.0000000001
44
0.0000000001
40
0
40
0
40
0
40
0
40
0.1526321346988205
40
0.29096835336716609
40
0.29096835336716609
40
0.29096835336716609
40
0.29096835336716609
10
30.059983518395839
20
207.91325857895384
30
0
10
29.715224370516815
20
208.2876324269248
30
0
10
29.057997098130393
20
209.00131531095695
30
0
10
28.355432381860403
20
209.67036499274937
30
0
10
28.021409299645839
20
209.98845389145384
30
0
0
LINE
5
1186
100
AcDbEntity
8
0
100
AcDbLine
10
28.021409299645839
20
209.98845389145379
30
0
11
26.617600705895839
21
209.98845389145384
31
0
0
LINE
5
1187
100
AcDbEntity
8
0
100
AcDbLine
10
26.617600705895839
20
209.98845389145384
30
0
11
26.617600705895839
21
208.57243826645384
31
0
0
SPLINE
5
1188
100
AcDbEntity
8
0
100
AcDbSpline
70
0
71
3
72
9
73
5
74
0
42
0.000000001
43
0.0000000001
44
0.0000000001
40
0
40
0
40
0
40
0
40
0.23069835798723401
40
0.45954194203039195
40
0.45954194203039195
40
0.45954194203039195
40
0.45954194203039195
10
26.617600705895839
20
208.57243826645384
30
0
10
27.187161774193498
20
208.05572453189478
30
0
10
28.32170474066271
20
207.02645134969814
30
0
10
29.433224549325352
20
205.97235780577321
30
0
10
29.986741330895839
20
205.44743826645384
30
0
0
LINE
5
1189
100
AcDbEntity
8
0
100
AcDbLine
10
29.986741330895839
20
205.44743826645384
30
0
11
27.862717893395839
21
203.44548514145384
31
0
0
SPLINE
5
1190
100
AcDbEntity
8
0
100
AcDbSpline
70
0
71
3
72
9
73
5
74
0
42
0.000000001
43
0.0000000001
44
0.0000000001
40
0
40
0
40
0
40
0
40
0.10720838660218959
40
0.21145707670284719
40
0.21145707670284719
40
0.21145707670284719
40
0.21145707670284719
10
27.862717893395839
20
203.44548514145384
30
0
10
27.656691885750291
20
203.73750785133365
30
0
10
27.250327620022226
20
204.31349141492512
30
0
10
26.826532435768733
20
204.8767714991659
30
0
10
26.617600705895839
20
205.15446951645384
30
0
0
LINE
5
1191
100
AcDbEntity
8
0
100
AcDbLine
10
26.617600705895839
20
205.15446951645384
30
0
11
26.617600705895839
21
193.67986014145384
31
0
0
LINE
5
1192
100
AcDbEntity
8
0
100
AcDbLine
10
26.617600705895839
20
193.67986014145384
30
0
11
23.443772580895839
21
193.67986014145384
31
0
0
LINE
5
1193
100
AcDbEntity
8
0
100
AcDbLine
10
23.443772580895839
20
193.67986014145384
30
0
11
23.443772580895839
21
203.98259451645384
31
0
0
SPLINE
5
1194
100
AcDbEntity
8
0
100
AcDbSpline
70
0
71
3
72
9
73
5
74
0
42
0.000000001
43
0.0000000001
44
0.0000000001
40
0
40
0
40
0
40
0
40
0.27361319210876933
40
0.54430256183068393
40
0.54430256183068393
40
0.54430256183068393
40
0.54430256183068393
10
23.443772580895839
20
203.98259451645384
30
0
10
23.098158817847924
20
203.1373115856492
30
0
10
22.410624510086421
20
201.45577839215537
30
0
10
21.502712133928384
20
199.88229672526921
30
0
10
21.051194455895839
20
199.09978201645384
30
0
0
SPLINE
5
1195
100
AcDbEntity
8
0
100
AcDbSpline
70
0
71
3
72
9
73
5
74
0
42
0.000000001
43
0.0000000001
44
0.0000000001
40
0
40
0
40
0
40
0
40
0.19888191170133865
40
0.45444435425044272
40
0.45444435425044272
40
0.45444435425044272
40
0.45444435425044272
10
21.051194455895839
20
199.09978201645384
30
0
10
20.940047708521597
20
199.75337221268575
30
0
10
20.686077845674646
20
201.24682313605115
30
0
10
20.388476278636951
20
202.73222257779082
30
0
10
20.221116330895839
20
203.56755545395384
30
0
0
SPLINE
5
1196
100
AcDbEntity
8
0
100
AcDbSpline
70
0
71
3
72
9
73
5
74
0
42
0.000000001
43
0.0000000001
44
0.0000000001
40
0
40
0
40
0
40
0
40
0.19473180275985613
40
0.36135666145860179
40
0.36135666145860179
40
0.36135666145860179
40
0.36135666145860179
10
58.648850705895839
20
196.92693045395384
30
0
10
58.568526450656499
20
197.57136502138437
30
0
10
58.419471677393638
20
198.76721860315595
30
0
10
58.175438933905113
20
199.9472570622151
30
0
10
58.062913205895839
20
200.49138357895384
30
0
0
SPLINE
5
1197
100
AcDbEntity
8
0
100
AcDbSpline
70
0
71
3
72
9
73
5
74
0
42
0.000000001
43
0.0000000001
44
0.0000000001
40
0
40
0
40
0
40
0
40
0.1050602809120212
40
0.18459590472813381
40
0.18459590472813381
40
0.18459590472813381
40
0.18459590472813381
10
58.062913205895839
20
200.49138357895384
30
0
10
58.407783439002891
20
200.4277029280108
30
0
10
59.01373682254188
20
200.31581299898662
30
0
10
59.628911587136024
20
200.28495332240911
30
0
10
59.893967893395839
20
200.27165701645384
30
0
0
SPLINE
5
1198
100
AcDbEntity
8
0
100
AcDbSpline
70
0
71
3
72
9
73
5
74
0
42
0.000000001
43
0.0000000001
44
0.0000000001
40
0
40
0
40
0
40
0
40
0.10737515647380516
40
0.21474077163112631
40
0.21474077163112631
40
0.21474077163112631
40
0.21474077163112631
10
59.893967893395839
20
200.27165701645384
30
0
10
60.282302763982017
20
200.32556182178536
30
0
10
61.058937997862131
20
200.43336664248739
30
0
10
61.27106393451281
20
201.18820161302085
30
0
10
61.377122190270839
20
201.56560232895384
30
0
0
SPLINE
5
1199
100
AcDbEntity
8
0
100
AcDbSpline
70
0
71
3
72
9
73
5
74
0
42
0.000000001
43
0.0000000001
44
0.0000000001
40
0
40
0
40
0
40
0
40
0.1483004370124848
40
0.33267971647529027
40
0.33267971647529027
40
0.33267971647529027
40
0.33267971647529027
10
61.377122190270839
20
201.56560232895384
30
0
10
61.428591253002772
20
202.05754199808499
30
0
10
61.54405088037705
20
203.16110145445884
30
0
10
61.550532094921977
20
204.27085958439665
30
0
10
61.554124143395839
20
204.88591482895384
30
0
0
LINE
5
1200
100
AcDbEntity
8
0
100
AcDbLine
10
61.554124143395839
20
204.88591482895384
30
0
11
57.989671018395839
21
204.88591482895384
31
0
0
SPLINE
5
1201
100
AcDbEntity
8
0
100
AcDbSpline
70
0
71
3
72
9
73
5
74
0
42
0.000000001
43
0.0000000001
44
0.0000000001
40
0
40
0
40
0
40
0
40
0.66570219792181828
40
1.1703994654600351
40
1.1703994654600351
40
1.1703994654600351
40
1.1703994654600351
10
57.989671018395839
20
204.88591482895384
30
0
10
57.947831610540888
20
202.63878487834759
30
0
10
57.87427196068321
20
198.68800974012632
30
0
10
56.283194197466841
20
195.08643812424117
30
0
10
55.597092893395839
20
193.53337576645384
30
0
0
SPLINE
5
1202
100
AcDbEntity
8
0
100
AcDbSpline
70
0
71
3
72
9
73
5
74
0
42
0.000000001
43
0.0000000001
44
0.0000000001
40
0
40
0
40
0
40
0
40
0.18591993874076124
40
0.37467159117954218
40
0.37467159117954218
40
0.37467159117954218
40
0.37467159117954218
10
55.597092893395839
20
193.53337576645384
30
0
10
55.139454431568431
20
193.95184205690126
30
0
10
54.217207297457051
20
194.79514822383982
30
0
10
53.219072697066665
20
195.54712422695764
30
0
10
52.716233518395839
20
195.92595389145384
30
0
0
SPLINE
5
1203
100
AcDbEntity
8
0
100
AcDbSpline
70
0
71
3
72
9
73
5
74
0
42
0.000000001
43
0.0000000001
44
0.0000000001
40
0
40
0
40
0
40
0
40
0.42905110134978752
40
0.97540166961897745
40
0.97540166961897745
40
0.97540166961897745
40
0.97540166961897745
10
52.716233518395839
20
195.92595389145384
30
0
10
53.306505132813243
20
197.24351477743858
30
0
10
54.648424350407872
20
200.23884816306827
30
0
10
54.724437573077289
20
203.5304660799116
30
0
10
54.767014768395839
20
205.37419607895384
30
0
0
LINE
5
1204
100
AcDbEntity
8
0
100
AcDbLine
10
54.767014768395839
20
205.37419607895384
30
0
11
54.767014768395839
21
213.65056326645384
31
0
0
LINE
5
1205
100
AcDbEntity
8
0
100
AcDbLine
10
54.767014768395839
20
213.65056326645384
30
0
11
66.229417112145839
21
213.65056326645384
31
0
0
LINE
5
1206
100
AcDbEntity
8
0
100
AcDbLine
10
66.229417112145839
20
213.65056326645384
30
0
11
66.119553830895839
21
217.67888357895384
31
0
0
LINE
5
1207
100
AcDbEntity
8
0
100
AcDbLine
10
66.119553830895839
20
217.67888357895384
30
0
11
69.586350705895839
21
217.67888357895384
31
0
0
LINE
5
1208
100
AcDbEntity
8
0
100
AcDbLine
10
69.586350705895839
20
217.67888357895384
30
0
11
69.622971799645839
21
213.65056326645384
31
0
0
LINE
5
1209
100
AcDbEntity
8
0
100
AcDbLine
10
69.622971799645839
20
213.65056326645384
30
0
11
72.955491330895839
21
213.65056326645384
31
0
0
SPLINE
5
1210
100
AcDbEntity
8
0
100
AcDbSpline
70
0
71
3
72
9
73
5
74
0
42
0.000000001
43
0.0000000001
44
0.0000000001
40
0
40
0
40
0
40
0
40
0.13554752580557922
40
0.32794675823064984
40
0.32794675823064984
40
0.32794675823064984
40
0.32794675823064984
10
72.955491330895839
20
213.65056326645384
30
0
10
72.676542343020046
20
214.00604218318961
30
0
10
72.001646835028225
20
214.86609593680842
30
0
10
71.294918289487882
20
215.70024729926402
30
0
10
70.880296018395839
20
216.18962576645384
30
0
0
LINE
5
1211
100
AcDbEntity
8
0
100
AcDbLine
10
70.880296018395839
20
216.18962576645379
30
0
11
73.443772580895839
21
217.58122732895384
31
0
0
SPLINE
5
1212
100
AcDbEntity
8
0
100
AcDbSpline
70
0
71
3
72
9
73
5
74
0
42
0.000000001
43
0.0000000001
44
0.0000000001
40
0
40
0
40
0
40
0
40
0.15789713525728186
40
0.37953208377521896
40
0.37953208377521896
40
0.37953208377521896
40
0.37953208377521896
10
73.443772580895839
20
217.58122732895384
30
0
10
73.792238421783139
20
217.18669525618583
30
0
10
74.629834154605931
20
216.23837165645867
30
0
10
75.42236527367119
20
215.2519774627888
30
0
10
75.885178830895839
20
214.67595389145384
30
0
0
LINE
5
1213
100
AcDbEntity
8
0
100
AcDbLine
10
75.885178830895839
20
214.67595389145384
30
0
11
74.005296018395839
21
213.65056326645384
31
0
0
LINE
5
1214
100
AcDbEntity
8
0
100
AcDbLine
10
74.005296018395839
20
213.65056326645384
30
0
11
76.690842893395839
21
213.65056326645384
31
0
0
LINE
5
1215
100
AcDbEntity
8
0
100
AcDbLine
10
76.690842893395839
20
213.65056326645384
30
0
11
76.690842893395839
21
210.72087576645384
31
0
0
LINE
5
1216
100
AcDbEntity
8
0
100
AcDbLine
10
76.690842893395839
20
210.72087576645384
30
0
11
69.684006955895839
21
210.72087576645384
31
0
0
SPLINE
5
1217
100
AcDbEntity
8
0
100
AcDbSpline
70
0
71
3
72
9
73
5
74
0
42
0.000000001
43
0.0000000001
44
0.0000000001
40
0
40
0
40
0
40
0
40
0.35483033627311505
40
0.66029681159286202
40
0.66029681159286202
40
0.66029681159286202
40
0.66029681159286202
10
69.684006955895839
20
210.72087576645384
30
0
10
69.730706377348795
20
209.53842243918609
30
0
10
69.817608414566024
20
207.33801824023021
30
0
10
70.085142633657796
20
205.15239761726536
30
0
10
70.208909299645839
20
204.14128592270384
30
0
0
SPLINE
5
1218
100
AcDbEntity
8
0
100
AcDbSpline
70
0
71
3
72
9
73
5
74
0
42
0.000000001
43
0.0000000001
44
0.0000000001
40
0
40
0
40
0
40
0
40
0.30000657481697707
40
0.61053249226665274
40
0.61053249226665274
40
0.61053249226665274
40
0.61053249226665274
10
70.208909299645839
20
204.14128592270384
30
0
10
70.734748161960169
20
204.9931675981797
30
0
10
71.80486374637789
20
206.72680107858542
30
0
10
72.648483880315084
20
208.58134039190659
30
0
10
73.077561643395839
20
209.52458670395384
30
0
0
LINE
5
1219
100
AcDbEntity
8
0
100
AcDbLine
10
73.077561643395839
20
209.52458670395387
30
0
11
76.080491330895839
21
208.13298514145384
31
0
0
SPLINE
5
1220
100
AcDbEntity
8
0
100
AcDbSpline
70
0
71
3
72
9
73
5
74
0
42
0.000000001
43
0.0000000001
44
0.0000000001
40
0
40
0
40
0
40
0
40
0.50185384770517749
40
0.9689144887675456
40
0.9689144887675456
40
0.9689144887675456
40
0.9689144887675456
10
76.080491330895839
20
208.13298514145384
30
0
10
75.358744672763834
20
206.6203734989638
30
0
10
73.965289591206911
20
203.70001861279772
30
0
10
72.122572818724294
20
201.04081716793107
30
0
10
71.234299924645839
20
199.75896170395384
30
0
0
SPLINE
5
1221
100
AcDbEntity
8
0
100
AcDbSpline
70
0
71
3
72
9
73
5
74
0
42
0.000000001
43
0.0000000001
44
0.0000000001
40
0
40
0
40
0
40
0
40
0.19858714566177851
40
0.29655284951477245
40
0.29655284951477245
40
0.29655284951477245
40
0.29655284951477245
10
71.234299924645839
20
199.75896170395384
30
0
10
71.445226848936187
20
199.09925194267234
30
0
10
71.760206855468056
20
198.1140985033156
30
0
10
72.603626854148999
20
197.56122979871105
30
0
10
72.882249143395839
20
197.37859061020384
30
0
0
SPLINE
5
1222
100
AcDbEntity
8
0
100
AcDbSpline
70
0
71
3
72
9
73
5
74
0
42
0.000000001
43
0.0000000001
44
0.0000000001
40
0
40
0
40
0
40
0
40
0.027119466019334588
40
0.060817561146932722
40
0.060817561146932722
40
0.060817561146932722
40
0.060817561146932722
10
72.882249143395839
20
197.37859061020384
30
0
10
72.974338083628339
20
197.39878842043265
30
0
10
73.18085486200269
20
197.44408361753381
30
0
10
73.287194910686779
20
197.62973041858504
30
0
10
73.346116330895839
20
197.73259451645384
30
0
0
SPLINE
5
1223
100
AcDbEntity
8
0
100
AcDbSpline
70
0
71
3
72
9
73
5
74
0
42
0.000000001
43
0.0000000001
44
0.0000000001
40
0
40
0
40
0
40
0
40
0.064719754035359872
40
0.18123187470491528
40
0.18123187470491528
40
0.18123187470491528
40
0.18123187470491528
10
73.346116330895839
20
197.73259451645384
30
0
10
73.414684580784964
20
197.93748355979432
30
0
10
73.606693228806904
20
198.51122531738503
30
0
10
73.693281589619971
20
199.11095222826165
30
0
10
73.748948362145839
20
199.49651053207884
30
0
0
SPLINE
5
1224
100
AcDbEntity
8
0
100
AcDbSpline
70
0
71
3
72
9
73
5
74
0
42
0.000000001
43
0.0000000001
44
0.0000000001
40
0
40
0
40
0
40
0
40
0.13244602537348643
40
0.24478108122130143
40
0.24478108122130143
40
0.24478108122130143
40
0.24478108122130143
10
73.748948362145839
20
199.49651053207884
30
0
10
73.81321964424275
20
199.93366931788961
30
0
10
73.932003079825648
20
200.74160749462544
30
0
10
73.965506534000369
20
201.55742012660295
30
0
10
73.980881955895839
20
201.93181326645384
30
0
0
SPLINE
5
1225
100
AcDbEntity
8
0
100
AcDbSpline
70
0
71
3
72
9
73
5
74
0
42
0.000000001
43
0.0000000001
44
0.0000000001
40
0
40
0
40
0
40
0
40
0.14986958596231731
40
0.34632031745745806
40
0.34632031745745806
40
0.34632031745745806
40
0.34632031745745806
10
73.980881955895839
20
201.93181326645384
30
0
10
74.421635761216123
20
201.69616414661368
30
0
10
75.440134590041097
20
201.15162352172578
30
0
10
76.502980807907647
20
200.69919578298845
30
0
10
77.105881955895839
20
200.44255545395384
30
0
0
SPLINE
5
1226
100
AcDbEntity
8
0
100
AcDbSpline
70
0
71
3
72
9
73
5
74
0
42
0.000000001
43
0.0000000001
44
0.0000000001
40
0
40
0
40
0
40
0
40
0.15375651128673917
40
0.3523647596684818
40
0.3523647596684818
40
0.3523647596684818
40
0.3523647596684818
10
77.105881955895839
20
200.44255545395384
30
0
10
77.052763168925054
20
199.93223617764909
30
0
10
76.931030512218626
20
198.76273429675652
30
0
10
76.652514337265472
20
197.61990649913861
30
0
10
76.495530393395839
20
196.97575857895384
30
0
0
SPLINE
5
1227
100
AcDbEntity
8
0
100
AcDbSpline
70
0
71
3
72
9
73
5
74
0
42
0.000000001
43
0.0000000001
44
0.0000000001
40
0
40
0
40
0
40
0
40
0.18676782745145226
40
0.31330689609472329
40
0.31330689609472329
40
0.31330689609472329
40
0.31330689609472329
10
76.495530393395839
20
196.97575857895384
30
0
10
76.342511920382719
20
196.35840432853951
30
0
10
76.085820264870719
20
195.32277979605155
30
0
10
75.369018300320661
20
194.54379472680571
30
0
10
75.079514768395839
20
194.22917654770384
30
0
0
SPLINE
5
1228
100
AcDbEntity
8
0
100
AcDbSpline
70
0
71
3
72
9
73
5
74
0
42
0.000000001
43
0.0000000001
44
0.0000000001
40
0
40
0
40
0
40
0
40
0.098949452888495174
40
0.18900578661503831
40
0.18900578661503831
40
0.18900578661503831
40
0.18900578661503831
10
75.079514768395839
20
194.22917654770384
30
0
10
74.793713235719935
20
194.05483352747453
30
0
10
74.247796690228085
20
193.72181663129811
30
0
10
73.6122951610174
20
193.66032918355643
30
0
10
73.309495237145839
20
193.63103201645384
30
0
0
SPLINE
5
1229
100
AcDbEntity
8
0
100
AcDbSpline
70
0
71
3
72
9
73
5
74
0
42
0.000000001
43
0.0000000001
44
0.0000000001
40
0
40
0
40
0
40
0
40
0.25699950401883564
40
0.57480238882015
40
0.57480238882015
40
0.57480238882015
40
0.57480238882015
10
73.309495237145839
20
193.63103201645384
30
0
10
72.436482639171572
20
193.81951645260142
30
0
10
70.483911840634491
20
194.24107876092825
30
0
10
69.465710815275258
20
195.98638239810373
30
0
10
68.902756955895839
20
196.95134451645384
30
0
0
SPLINE
5
1230
100
AcDbEntity
8
0
100
AcDbSpline
70
0
71
3
72
9
73
5
74
0
42
0.000000001
43
0.0000000001
44
0.0000000001
40
0
40
0
40
0
40
0
40
0.2554975674209205
40
0.50495146926554546
40
0.50495146926554546
40
0.50495146926554546
40
0.50495146926554546
10
68.902756955895839
20
196.95134451645384
30
0
10
68.312669563535067
20
196.33595228119972
30
0
10
67.146452997266309
20
195.11972460238883
30
0
10
65.838144339364945
20
194.05792254457171
30
0
10
65.191819455895839
20
193.53337576645384
30
0
0
SPLINE
5
1231
100
AcDbEntity
8
0
100
AcDbSpline
70
0
71
3
72
9
73
5
74
0
42
0.000000001
43
0.0000000001
44
0.0000000001
40
0
40
0
40
0
40
0
40
0.18328441776487753
40
0.3629559948447027
40
0.3629559948447027
40
0.3629559948447027
40
0.3629559948447027
10
65.191819455895839
20
193.53337576645384
30
0
10
64.795368563654819
20
193.99936761751053
30
0
10
64.010281485575945
20
194.92216584527253
30
0
10
63.102252311074906
20
195.72422743258642
30
0
10
62.652756955895839
20
196.12126639145384
30
0
0
SPLINE
5
1232
100
AcDbEntity
8
0
100
AcDbSpline
70
0
71
3
72
9
73
5
74
0
42
0.000000001
43
0.0000000001
44
0.0000000001
40
0
40
0
40
0
40
0
40
0.33191735053097737
40
0.66642842999171825
40
0.66642842999171825
40
0.66642842999171825
40
0.66642842999171825
10
62.652756955895839
20
196.12126639145384
30
0
10
63.533084684605285
20
196.7953132151768
30
0
10
65.300619359076151
20
198.1486741219085
30
0
10
66.804910572736659
20
199.78973164494704
30
0
10
67.559983518395839
20
200.61345389145384
30
0
0
SPLINE
5
1233
100
AcDbEntity
8
0
100
AcDbSpline
70
0
71
3
72
9
73
5
74
0
42
0.000000001
43
0.0000000001
44
0.0000000001
40
0
40
0
40
0
40
0
40
0.44215842528849136
40
1.0189533270021043
40
1.0189533270021043
40
1.0189533270021043
40
1.0189533270021043
10
67.559983518395839
20
200.61345389145384
30
0
10
67.282230567235686
20
202.06250772874824
30
0
10
66.642149371260203
20
205.40184979274474
30
0
10
66.456549317187765
20
208.79827481443095
30
0
10
66.351487424645839
20
210.72087576645384
30
0
0
LINE
5
1234
100
AcDbEntity
8
0
100
AcDbLine
10
66.351487424645839
20
210.72087576645379
30
0
11
57.989671018395839
21
210.72087576645384
31
0
0
LINE
5
1235
100
AcDbEntity
8
0
100
AcDbLine
10
57.989671018395839
20
210.72087576645384
30
0
11
57.989671018395839
21
207.84001639145384
31
0
0
LINE
5
1236
100
AcDbEntity
8
0
100
AcDbLine
10
57.989671018395839
20
207.84001639145384
30
0
11
64.947678830895839
21
207.84001639145384
31
0
0
SPLINE
5
1237
100
AcDbEntity
8
0
100
AcDbSpline
70
0
71
3
72
9
73
5
74
0
42
0.000000001
43
0.0000000001
44
0.0000000001
40
0
40
0
40
0
40
0
40
0.12471808367378903
40
0.42566941272545544
40
0.42566941272545544
40
0.42566941272545544
40
0.42566941272545544
10
64.947678830895839
20
207.84001639145384
30
0
10
64.935906779553548
20
207.42445436906269
30
0
10
64.895728145999769
20
206.00611921820416
30
0
10
64.840348361146795
20
204.58828498026679
30
0
10
64.801194455895839
20
203.58586600082884
30
0
0
SPLINE
5
1238
100
AcDbEntity
8
0
100
AcDbSpline
70
0
71
3
72
9
73
5
74
0
42
0.000000001
43
0.0000000001
44
0.0000000001
40
0
40
0
40
0
40
0
40
0.31477461693626962
40
0.48412662303111348
40
0.48412662303111348
40
0.48412662303111348
40
0.48412662303111348
10
64.801194455895839
20
203.58586600082884
30
0
10
64.780879641090806
20
202.52988292102313
30
0
10
64.749635245386983
20
200.90577000054634
30
0
10
64.299482422480224
20
199.35076760219133
30
0
10
64.142014768395839
20
198.80681326645384
30
0
0
SPLINE
5
1239
100
AcDbEntity
8
0
100
AcDbSpline
70
0
71
3
72
9
73
5
74
0
42
0.000000001
43
0.0000000001
44
0.0000000001
40
0
40
0
40
0
40
0
40
0.10008020946764828
40
0.19824938132793637
40
0.19824938132793637
40
0.19824938132793637
40
0.19824938132793637
10
64.142014768395839
20
198.80681326645384
30
0
10
63.959982217235989
20
198.5241863310319
30
0
10
63.599393037407658
20
197.96432923848533
30
0
10
63.076485397087694
20
197.55216741411397
30
0
10
62.817551877770839
20
197.34807303207884
30
0
0
SPLINE
5
1240
100
AcDbEntity
8
0
100
AcDbSpline
70
0
71
3
72
9
73
5
74
0
42
0.000000001
43
0.0000000001
44
0.0000000001
40
0
40
0
40
0
40
0
40
0.14994242998861648
40
0.42202550855411425
40
0.42202550855411425
40
0.42202550855411425
40
0.42202550855411425
10
62.817551877770839
20
197.34807303207884
30
0
10
62.337900970772672
20
197.19637834450427
30
0
10
60.987883380890253
20
196.76942096043706
30
0
10
59.565726282552724
20
196.86518843160374
30
0
10
58.648850705895839
20
196.92693045395384
30
0
0
CIRCLE
5
1241
100
AcDbEntity
8
0
100
AcDbCircle
10
-83.35388585560213
20
218.89714885712897
30
0
40
1.499999999999998
210
0
220
0
230
1
0
CIRCLE
5
1242
100
AcDbEntity
8
0
100
AcDbCircle
10
-83.35388585560213
20
192.5744037660215
30
0
40
1.4999999999999956
210
0
220
0
230
1
0
CIRCLE
5
1243
100
AcDbEntity
8
0
100
AcDbCircle
10
83.35388585560213
20
218.89714885712894
30
0
40
1.499999999999998
210
0
220
0
230
1
0
CIRCLE
5
1244
100
AcDbEntity
8
0
100
AcDbCircle
10
83.353885855602101
20
192.57440376602148
30
0
40
1.4999999999999956
210
0
220
0
230
1
0
CIRCLE
5
1245
100
AcDbEntity
8
0
100
AcDbCircle
10
-83.35388585560213
20
218.89714885712897
30
0
40
1.499999999999998
210
0
220
0
230
1
0
CIRCLE
5
1246
100
AcDbEntity
8
0
100
AcDbCircle
10
-83.35388585560213
20
192.5744037660215
30
0
40
1.4999999999999956
210
0
220
0
230
1
0
CIRCLE
5
1247
100
AcDbEntity
8
0
100
AcDbCircle
10
83.35388585560213
20
218.89714885712894
30
0
40
1.499999999999998
210
0
220
0
230
1
0
CIRCLE
5
1248
100
AcDbEntity
8
0
100
AcDbCircle
10
83.353885855602101
20
192.57440376602148
30
0
40
1.4999999999999956
210
0
220
0
230
1
0
CIRCLE
5
1249
100
AcDbEntity
8
0
100
AcDbCircle
10
-83.35388585560213
20
165.89714885712897
30
0
40
1.499999999999998
210
0
220
0
230
1
0
CIRCLE
5
1250
100
AcDbEntity
8
0
100
AcDbCircle
10
-83.35388585560213
20
139.5744037660215
30
0
40
1.4999999999999956
210
0
220
0
230
1
0
CIRCLE
5
1251
100
AcDbEntity
8
0
100
AcDbCircle
10
83.353885855602101
20
139.57440376602148
30
0
40
1.4999999999999956
210
0
220
0
230
1
0
CIRCLE
5
1252
100
AcDbEntity
8
0
100
AcDbCircle
10
83.35388585560213
20
165.89714885712894
30
0
40
1.499999999999998
210
0
220
0
230
1
0
LWPOLYLINE
5
1253
100
AcDbEntity
8
0
100
AcDbPolyline
90
4
70
1
43
0.0
10
100.3847169548207
20
-69.517832376095072
10
100.3847169548207
20
-22.257642998939975
10
76.34091514496788
20
-22.257642998939975
10
76.34091514496788
20
-69.517832376095072
0
LWPOLYLINE
5
1254
100
AcDbEntity
8
0
100
AcDbPolyline
90
6
70
1
43
0.0
10
79.472400813225221
20
-82.410290168588432
10
83.910877375725221
20
-82.410290168588432
10
83.910877375725221
20
-81.091930793588432
10
81.083728938225221
20
-81.091930793588432
10
81.083728938225221
20
-74.846813606088418
10
79.472400813225235
20
-74.846813606088432
0
LWPOLYLINE
5
1255
100
AcDbEntity
8
0
100
AcDbPolyline
90
12
70
1
43
0.0
10
84.941150813225221
20
-82.410290168588432
10
89.418689875725221
20
-82.410290168588432
10
89.418689875725221
20
-81.091930793588432
10
86.552478938225221
20
-81.091930793588432
10
86.552478938225221
20
-79.260876106088418
10
89.052478938225221
20
-79.260876106088418
10
89.052478938225221
20
-77.947399543588418
10
86.552478938225221
20
-77.947399543588418
10
86.552478938225221
20
-76.165172981088418
10
89.242908625725221
20
-76.165172981088418
10
89.242908625725221
20
-74.846813606088418
10
84.941150813225221
20
-74.846813606088432
0
LINE
5
1256
100
AcDbEntity
8
0
100
AcDbLine
10
90.658924250725221
20
-82.410290168588432
30
0
11
90.658924250725221
21
-74.846813606088432
31
0
0
LINE
5
1257
100
AcDbEntity
8
0
100
AcDbLine
10
90.658924250725221
20
-74.846813606088432
30
0
11
93.271228938225221
21
-74.846813606088418
31
0
0
SPLINE
5
1258
100
AcDbEntity
8
0
100
AcDbSpline
70
0
71
3
72
9
73
5
74
0
42
0.000000001
43
0.0000000001
44
0.0000000001
40
0
40
0
40
0
40
0
40
0.31586858018420583
40
0.61012767099240772
40
0.61012767099240772
40
0.61012767099240772
40
0.61012767099240772
10
93.271228938225221
20
-74.846813606088418
30
0
10
94.445719128787374
20
-74.977458638487121
30
0
10
96.714349215873654
20
-75.229810896181334
30
0
10
97.109143511201239
20
-77.458473233483858
30
0
10
97.299549250725221
20
-78.533337043588418
30
0
0
SPLINE
5
1259
100
AcDbEntity
8
0
100
AcDbSpline
70
0
71
3
72
9
73
5
74
0
42
0.000000001
43
0.0000000001
44
0.0000000001
40
0
40
0
40
0
40
0
40
0.16051625286905227
40
0.31018965178167862
40
0.31018965178167862
40
0.31018965178167862
40
0.31018965178167862
10
97.299549250725221
20
-78.533337043588418
30
0
10
97.259480448801042
20
-79.082150365086235
30
0
10
97.182049487798494
20
-80.14270473291981
30
0
10
96.50048808385452
20
-80.955895727246329
30
0
10
96.171619563225221
20
-81.348278449838432
30
0
0
SPLINE
5
1260
100
AcDbEntity
8
0
100
AcDbSpline
70
0
71
3
72
9
73
5
74
0
42
0.000000001
43
0.0000000001
44
0.0000000001
40
0
40
0
40
0
40
0
40
0.15173689699321055
40
0.31576516332557214
40
0.31576516332557214
40
0.31576516332557214
40
0.31576516332557214
10
96.171619563225221
20
-81.348278449838432
30
0
10
95.757605138976359
20
-81.657902794720698
30
0
10
94.896039264870353
20
-82.302232445377115
30
0
10
93.820280176824369
20
-82.373348185004346
30
0
10
93.261463313225221
20
-82.410290168588432
30
0
0
LINE
5
1261
100
AcDbEntity
8
0
100
AcDbLine
10
93.261463313225221
20
-82.410290168588432
30
0
11
90.658924250725221
21
-82.410290168588432
31
0
0
LINE
5
1262
100
AcDbEntity
8
0
100
AcDbLine
10
92.270252375725221
20
-76.165172981088418
30
0
11
92.270252375725221
21
-81.091930793588432
31
0
0
LINE
5
1263
100
AcDbEntity
8
0
100
AcDbLine
10
92.270252375725221
20
-81.091930793588432
30
0
11
93.149158625725221
21
-81.091930793588432
31
0
0
SPLINE
5
1264
100
AcDbEntity
8
0
100
AcDbSpline
70
0
71
3
72
9
73
5
74
0
42
0.000000001
43
0.0000000001
44
0.0000000001
40
0
40
0
40
0
40
0
40
0.10383305373595564
40
0.19697270217345564
40
0.19697270217345564
40
0.19697270217345564
40
0.19697270217345564
10
93.149158625725221
20
-81.091930793588432
30
0
10
93.504369166828354
20
-81.070165562382627
30
0
10
94.178208350056991
20
-81.028876625480706
30
0
10
94.702840961516856
20
-80.607559304816817
30
0
10
94.950916438225221
20
-80.408337043588432
30
0
0
SPLINE
5
1265
100
AcDbEntity
8
0
100
AcDbSpline
70
0
71
3
72
9
73
5
74
0
42
0.000000001
43
0.0000000001
44
0.0000000001
40
0
40
0
40
0
40
0
40
0.094230453877692383
40
0.20011580786046446
40
0.20011580786046446
40
0.20011580786046446
40
0.20011580786046446
10
94.950916438225221
20
-80.408337043588432
30
0
10
95.141578258159356
20
-80.150120839976495
30
0
10
95.546483918210441
20
-79.601750944024076
30
0
10
95.584891224436817
20
-78.919005591959959
30
0
10
95.605213313225221
20
-78.557751106088418
30
0
0
SPLINE
5
1266
100
AcDbEntity
8
0
100
AcDbSpline
70
0
71
3
72
9
73
5
74
0
42
0.000000001
43
0.0000000001
44
0.0000000001
40
0
40
0
40
0
40
0
40
0.10184690196218447
40
0.19321065956255837
40
0.19321065956255837
40
0.19321065956255837
40
0.19321065956255837
10
95.605213313225221
20
-78.557751106088418
30
0
10
95.583443900487367
20
-78.208927489979715
30
0
10
95.542145809800843
20
-77.547184818961767
30
0
10
95.120842002620918
20
-77.03818741574905
30
0
10
94.921619563225221
20
-76.797497199838418
30
0
0
SPLINE
5
1267
100
AcDbEntity
8
0
100
AcDbSpline
70
0
71
3
72
9
73
5
74
0
42
0.000000001
43
0.0000000001
44
0.0000000001
40
0
40
0
40
0
40
0
40
0.091810205181623
40
0.19218394390200449
40
0.19218394390200449
40
0.19218394390200449
40
0.19218394390200449
10
94.921619563225221
20
-76.797497199838418
30
0
10
94.669170427755205
20
-76.613169463409164
30
0
10
94.140725137895487
20
-76.227320948122383
30
0
10
93.486148032289975
20
-76.186495353309695
30
0
10
93.144275813225221
20
-76.165172981088418
30
0
0
LINE
5
1268
100
AcDbEntity
8
0
100
AcDbLine
10
93.144275813225221
20
-76.165172981088418
30
0
11
92.270252375725221
21
-76.165172981088418
31
0
0
SPLINE
5
1269
100
AcDbEntity
8
0
100
AcDbSpline
70
0
71
3
72
9
73
5
74
0
42
0.000000001
43
0.0000000001
44
0.0000000001
40
0
40
0
40
0
40
0
40
0.03912424928962608
40
0.074382923060491629
40
0.074382923060491629
40
0.074382923060491629
40
0.074382923060491629
10
118.63052011615687
20
-80.148133593137416
30
0
10
118.63715817920573
20
-80.278387427342338
30
0
10
118.64977844776035
20
-80.5260256850448
30
0
10
118.66983915218908
20
-80.773170546981845
30
0
10
118.67934824115687
20
-80.890321093137416
30
0
0
SPLINE
5
1270
100
AcDbEntity
8
0
100
AcDbSpline
70
0
71
3
72
9
73
5
74
0
42
0.000000001
43
0.0000000001
44
0.0000000001
40
0
40
0
40
0
40
0
40
0.060663541557005936
40
0.12214978965631587
40
0.12214978965631587
40
0.12214978965631587
40
0.12214978965631587
10
118.67934824115687
20
-80.890321093137416
30
0
10
118.81091957806811
20
-80.736324212166863
30
0
10
119.0758465954498
20
-80.42624197602504
30
0
10
119.28955020349532
20
-80.078855878822338
30
0
10
119.39712167865687
20
-79.903992968137402
30
0
0
SPLINE
5
1271
100
AcDbEntity
8
0
100
AcDbSpline
70
0
71
3
72
9
73
5
74
0
42
0.000000001
43
0.0000000001
44
0.0000000001
40
0
40
0
40
0
40
0
40
0.12636960246919612
40
0.26380147590627689
40
0.26380147590627689
40
0.26380147590627689
40
0.26380147590627689
10
119.39712167865687
20
-79.903992968137402
30
0
10
119.26360314753174
20
-79.503318874881543
30
0
10
118.98487800411573
20
-78.666896071509427
30
0
10
118.877099073739
20
-77.791622350648666
30
0
10
118.82094980365687
20
-77.335633593137402
30
0
0
SPLINE
5
1272
100
AcDbEntity
8
0
100
AcDbSpline
70
0
71
3
72
9
73
5
74
0
42
0.000000001
43
0.0000000001
44
0.0000000001
40
0
40
0
40
0
40
0
40
0.024391163577500104
40
0.048499663994697934
40
0.048499663994697934
40
0.048499663994697934
40
0.048499663994697934
10
118.82094980365687
20
-77.335633593137402
30
0
10
118.77855819222009
20
-77.40501690219439
30
0
10
118.69426623524376
20
-77.542979454305183
30
0
10
118.60602447721334
20
-77.678449560080026
30
0
10
118.56216074115687
20
-77.745789843137402
30
0
0
SPLINE
5
1273
100
AcDbEntity
8
0
100
AcDbSpline
70
0
71
3
72
9
73
5
74
0
42
0.000000001
43
0.0000000001
44
0.0000000001
40
0
40
0
40
0
40
0
40
0.057169060574483767
40
0.11896751043120432
40
0.11896751043120432
40
0.11896751043120432
40
0.11896751043120432
10
118.56216074115687
20
-77.745789843137402
30
0
10
118.49359842969305
20
-77.567825113576831
30
0
10
118.35092182416035
20
-77.197484572598398
30
0
10
118.16859193976741
20
-76.844938056947797
30
0
10
118.07387949115687
20
-76.661805468137402
30
0
0
SPLINE
5
1274
100
AcDbEntity
8
0
100
AcDbSpline
70
0
71
3
72
9
73
5
74
0
42
0.000000001
43
0.0000000001
44
0.0000000001
40
0
40
0
40
0
40
0
40
0.010931940027948296
40
0.022291696008545796
40
0.022291696008545796
40
0.022291696008545796
40
0.022291696008545796
10
118.07387949115687
20
-76.661805468137402
30
0
10
118.09194846772024
20
-76.630158162438349
30
0
10
118.12879354112042
20
-76.565625049712779
30
0
10
118.16357624452829
20
-76.499957088999352
30
0
10
118.18130136615687
20
-76.466492968137402
30
0
0
LINE
5
1275
100
AcDbEntity
8
0
100
AcDbLine
10
118.18130136615687
20
-76.466492968137402
30
0
11
114.88540292865687
21
-76.466492968137402
31
0
0
SPLINE
5
1276
100
AcDbEntity
8
0
100
AcDbSpline
70
0
71
3
72
9
73
5
74
0
42
0.000000001
43
0.0000000001
44
0.0000000001
40
0
40
0
40
0
40
0
40
0.064658329601593373
40
0.12854508455097263
40
0.12854508455097263
40
0.12854508455097263
40
0.12854508455097263
10
114.88540292865687
20
-76.466492968137402
30
0
10
114.77244675098379
20
-76.650086606919729
30
0
10
114.54788231359407
20
-77.015083042270163
30
0
10
114.30691914892915
20
-77.369466414088961
30
0
10
114.18716074115687
20
-77.545594530637402
30
0
0
LINE
5
1277
100
AcDbEntity
8
0
100
AcDbLine
10
114.18716074115687
20
-77.545594530637402
30
0
11
114.18716074115687
21
-82.589539843137416
31
0
0
LINE
5
1278
100
AcDbEntity
8
0
100
AcDbLine
10
114.18716074115687
20
-82.589539843137416
30
0
11
113.03481699115687
21
-82.589539843137416
31
0
0
LINE
5
1279
100
AcDbEntity
8
0
100
AcDbLine
10
113.03481699115687
20
-82.589539843137416
30
0
11
113.03481699115687
21
-79.054383593137416
31
0
0
SPLINE
5
1280
100
AcDbEntity
8
0
100
AcDbSpline
70
0
71
3
72
9
73
5
74
0
42
0.000000001
43
0.0000000001
44
0.0000000001
40
0
40
0
40
0
40
0
40
0.044119257523556894
40
0.087836793304098104
40
0.087836793304098104
40
0.087836793304098104
40
0.087836793304098104
10
113.03481699115687
20
-79.054383593137402
30
0
10
112.93861055088428
20
-79.165630296145238
30
0
10
112.74707366465641
20
-79.387110760829955
30
0
10
112.54797402145643
20
-79.601817886852785
30
0
10
112.44887949115687
20
-79.708680468137402
30
0
0
SPLINE
5
1281
100
AcDbEntity
8
0
100
AcDbSpline
70
0
71
3
72
9
73
5
74
0
42
0.000000001
43
0.0000000001
44
0.0000000001
40
0
40
0
40
0
40
0
40
0.064010021766166644
40
0.14239589298458932
40
0.14239589298458932
40
0.14239589298458932
40
0.14239589298458932
10
112.44887949115687
20
-79.708680468137402
30
0
10
112.38641998413374
20
-79.504610549150314
30
0
10
112.24747334683329
20
-79.050639162425711
30
0
10
112.08134512377575
20
-78.605863588854533
30
0
10
111.98989511615687
20
-78.361024218137402
30
0
0
SPLINE
5
1282
100
AcDbEntity
8
0
100
AcDbSpline
70
0
71
3
72
9
73
5
74
0
42
0.000000001
43
0.0000000001
44
0.0000000001
40
0
40
0
40
0
40
0
40
0.16822422913981161
40
0.33819538112948755
40
0.33819538112948755
40
0.33819538112948755
40
0.33819538112948755
10
111.98989511615687
20
-78.361024218137402
30
0
10
112.35398939872542
20
-77.933326637418489
30
0
10
113.08595889735216
20
-77.073490054668071
30
0
10
113.67584861620384
20
-76.110587430717715
30
0
10
113.97231699115687
20
-75.626649218137402
30
0
0
LINE
5
1283
100
AcDbEntity
8
0
100
AcDbLine
10
113.97231699115687
20
-75.626649218137402
30
0
11
114.69497324115687
21
-76.158875780637402
31
0
0
LINE
5
1284
100
AcDbEntity
8
0
100
AcDbLine
10
114.69497324115687
20
-76.158875780637402
30
0
11
114.69497324115687
21
-74.005555468137402
31
0
0
SPLINE
5
1285
100
AcDbEntity
8
0
100
AcDbSpline
70
0
71
3
72
9
73
5
74
0
42
0.000000001
43
0.0000000001
44
0.0000000001
40
0
40
0
40
0
40
0
40
0.15140852825076595
40
0.29787052198366354
40
0.29787052198366354
40
0.29787052198366354
40
0.29787052198366354
10
114.69497324115687
20
-74.005555468137402
30
0
10
114.38582544647286
20
-74.405083417605752
30
0
10
113.77762975210544
20
-75.191086691200084
30
0
10
113.08326513008421
20
-75.902063948819134
30
0
10
112.74184824115687
20
-76.251649218137402
30
0
0
SPLINE
5
1286
100
AcDbEntity
8
0
100
AcDbSpline
70
0
71
3
72
9
73
5
74
0
42
0.000000001
43
0.0000000001
44
0.0000000001
40
0
40
0
40
0
40
0
40
0.066905668125179132
40
0.13164898163189848
40
0.13164898163189848
40
0.13164898163189848
40
0.13164898163189848
10
112.74184824115687
20
-76.251649218137402
30
0
10
112.62204821635878
20
-76.063498877641223
30
0
10
112.38632003807295
20
-75.69327911279747
30
0
10
112.13367434208861
20
-75.334394270250854
30
0
10
112.00942636615687
20
-75.157899218137402
30
0
0
SPLINE
5
1287
100
AcDbEntity
8
0
100
AcDbSpline
70
0
71
3
72
9
73
5
74
0
42
0.000000001
43
0.0000000001
44
0.0000000001
40
0
40
0
40
0
40
0
40
0.14363770452472713
40
0.29112774200938762
40
0.29112774200938762
40
0.29112774200938762
40
0.29112774200938762
10
112.00942636615687
20
-75.157899218137402
30
0
10
112.35469380212055
20
-74.82484882825861
30
0
10
113.05448867390629
20
-74.14981570724359
30
0
10
113.63127802354795
20
-73.366990944056397
30
0
10
113.92348886615687
20
-72.970399218137402
30
0
0
LINE
5
1288
100
AcDbEntity
8
0
100
AcDbLine
10
113.92348886615687
20
-72.970399218137402
30
0
11
114.92934824115687
21
-73.683289843137402
31
0
0
SPLINE
5
1289
100
AcDbEntity
8
0
100
AcDbSpline
70
0
71
3
72
9
73
5
74
0
42
0.000000001
43
0.0000000001
44
0.0000000001
40
0
40
0
40
0
40
0
40
0.012672403646747377
40
0.025489786459247377
40
0.025489786459247377
40
0.025489786459247377
40
0.025489786459247377
10
114.92934824115687
20
-73.683289843137402
30
0
10
114.90465749368198
20
-73.717565633679129
30
0
10
114.85499352319948
20
-73.786509348382751
30
0
10
114.80374903187686
20
-73.85428659519944
30
0
10
114.77798105365687
20
-73.888367968137402
30
0
0
LINE
5
1290
100
AcDbEntity
8
0
100
AcDbLine
10
114.77798105365687
20
-73.888367968137402
30
0
11
115.64223886615687
21
-73.888367968137402
31
0
0
LINE
5
1291
100
AcDbEntity
8
0
100
AcDbLine
10
115.64223886615687
20
-73.888367968137402
30
0
11
115.64223886615687
21
-75.587586718137402
31
0
0
LINE
5
1292
100
AcDbEntity
8
0
100
AcDbLine
10
115.64223886615687
20
-75.587586718137402
30
0
11
116.03286386615687
21
-75.587586718137402
31
0
0
LINE
5
1293
100
AcDbEntity
8
0
100
AcDbLine
10
116.03286386615687
20
-75.587586718137402
30
0
11
116.03286386615687
21
-73.058289843137402
31
0
0
LINE
5
1294
100
AcDbEntity
8
0
100
AcDbLine
10
116.03286386615687
20
-73.058289843137402
30
0
11
116.98012949115687
21
-73.058289843137402
31
0
0
LINE
5
1295
100
AcDbEntity
8
0
100
AcDbLine
10
116.98012949115687
20
-73.058289843137402
30
0
11
116.98012949115687
21
-75.587586718137402
31
0
0
LINE
5
1296
100
AcDbEntity
8
0
100
AcDbLine
10
116.98012949115687
20
-75.587586718137402
30
0
11
117.37075449115687
21
-75.587586718137402
31
0
0
LINE
5
1297
100
AcDbEntity
8
0
100
AcDbLine
10
117.37075449115687
20
-75.587586718137402
30
0
11
117.37075449115687
21
-73.888367968137402
31
0
0
LINE
5
1298
100
AcDbEntity
8
0
100
AcDbLine
10
117.37075449115687
20
-73.888367968137402
30
0
11
118.31802011615687
21
-73.888367968137402
31
0
0
LINE
5
1299
100
AcDbEntity
8
0
100
AcDbLine
10
118.31802011615687
20
-73.888367968137402
30
0
11
118.31802011615687
21
-76.193055468137402
31
0
0
SPLINE
5
1300
100
AcDbEntity
8
0
100
AcDbSpline
70
0
71
3
72
9
73
5
74
0
42
0.000000001
43
0.0000000001
44
0.0000000001
40
0
40
0
40
0
40
0
40
0.15565108911688966
40
0.34247243426772433
40
0.34247243426772433
40
0.34247243426772433
40
0.34247243426772433
10
118.31802011615687
20
-76.193055468137402
30
0
10
118.51730161707387
20
-75.712979756216313
30
0
10
118.95577218037532
20
-74.656689699864955
30
0
10
119.20658850712817
20
-73.540323215693519
30
0
10
119.34341074115687
20
-72.931336718137402
30
0
0
LINE
5
1301
100
AcDbEntity
8
0
100
AcDbLine
10
119.34341074115687
20
-72.931336718137416
30
0
11
120.48598886615687
21
-73.175477343137402
31
0
0
SPLINE
5
1302
100
AcDbEntity
8
0
100
AcDbSpline
70
0
71
3
72
9
73
5
74
0
42
0.000000001
43
0.0000000001
44
0.0000000001
40
0
40
0
40
0
40
0
40
0.074937750891487409
40
0.14826178149910063
40
0.14826178149910063
40
0.14826178149910063
40
0.14826178149910063
10
120.48598886615687
20
-73.175477343137402
30
0
10
120.42558209540233
20
-73.417934166572621
30
0
10
120.30606936196517
20
-73.897626713406183
30
0
10
120.15528635242832
20
-74.368422722485818
30
0
10
120.08071542865687
20
-74.601258593137402
30
0
0
LINE
5
1303
100
AcDbEntity
8
0
100
AcDbLine
10
120.08071542865687
20
-74.601258593137402
30
0
11
121.80434824115687
21
-74.601258593137402
31
0
0
LINE
5
1304
100
AcDbEntity
8
0
100
AcDbLine
10
121.80434824115687
20
-74.601258593137402
30
0
11
121.80434824115687
21
-75.763367968137402
31
0
0
LINE
5
1305
100
AcDbEntity
8
0
100
AcDbLine
10
121.80434824115687
20
-75.763367968137402
30
0
11
121.47231699115687
21
-75.763367968137402
31
0
0
SPLINE
5
1306
100
AcDbEntity
8
0
100
AcDbSpline
70
0
71
3
72
9
73
5
74
0
42
0.000000001
43
0.0000000001
44
0.0000000001
40
0
40
0
40
0
40
0
40
0.22596375504107349
40
0.42410854047872237
40
0.42410854047872237
40
0.42410854047872237
40
0.42410854047872237
10
121.47231699115687
20
-75.763367968137402
30
0
10
121.41070354130798
20
-76.5172537470376
30
0
10
121.29506202931188
20
-77.932212519159748
30
0
10
120.85011803723496
20
-79.279444805316899
30
0
10
120.64223886615687
20
-79.908875780637402
30
0
0
SPLINE
5
1307
100
AcDbEntity
8
0
100
AcDbSpline
70
0
71
3
72
9
73
5
74
0
42
0.000000001
43
0.0000000001
44
0.0000000001
40
0
40
0
40
0
40
0
40
0.089309847499361411
40
0.17615298770022353
40
0.17615298770022353
40
0.17615298770022353
40
0.17615298770022353
10
120.64223886615687
20
-79.908875780637402
30
0
10
120.80780302378
20
-80.158483551811486
30
0
10
121.13435851388527
20
-80.650805013292199
30
0
10
121.5896539479416
20
-81.027082514157257
30
0
10
121.81411386615687
20
-81.212586718137416
30
0
0
SPLINE
5
1308
100
AcDbEntity
8
0
100
AcDbSpline
70
0
71
3
72
9
73
5
74
0
42
0.000000001
43
0.0000000001
44
0.0000000001
40
0
40
0
40
0
40
0
40
0.083196089899359074
40
0.14751081242443714
40
0.14751081242443714
40
0.14751081242443714
40
0.14751081242443714
10
121.81411386615687
20
-81.212586718137416
30
0
10
121.70401608503198
20
-81.467304786406032
30
0
10
121.50880723375656
20
-81.918932612124053
30
0
10
121.35418529163181
20
-82.385929272786598
30
0
10
121.28677011615687
20
-82.589539843137416
30
0
0
SPLINE
5
1309
100
AcDbEntity
8
0
100
AcDbSpline
70
0
71
3
72
9
73
5
74
0
42
0.000000001
43
0.0000000001
44
0.0000000001
40
0
40
0
40
0
40
0
40
0.095481928338809141
40
0.19155134183047892
40
0.19155134183047892
40
0.19155134183047892
40
0.19155134183047892
10
121.28677011615687
20
-82.589539843137416
30
0
10
121.04826429778321
20
-82.376924035629145
30
0
10
120.56978517258435
20
-81.950384229289398
30
0
10
120.20504905673667
20
-81.42325083364959
30
0
10
120.02212167865687
20
-81.158875780637416
30
0
0
SPLINE
5
1310
100
AcDbEntity
8
0
100
AcDbSpline
70
0
71
3
72
9
73
5
74
0
42
0.000000001
43
0.0000000001
44
0.0000000001
40
0
40
0
40
0
40
0
40
0.097658233622432158
40
0.19262564173325059
40
0.19262564173325059
40
0.19262564173325059
40
0.19262564173325059
10
120.02212167865687
20
-81.158875780637416
30
0
10
119.84212078283149
20
-81.431411963751188
30
0
10
119.48707864470541
20
-81.968975006011277
30
0
10
119.0245630518825
20
-82.417324675696193
30
0
10
118.79653574115687
20
-82.638367968137416
30
0
0
SPLINE
5
1311
100
AcDbEntity
8
0
100
AcDbSpline
70
0
71
3
72
9
73
5
74
0
42
0.000000001
43
0.0000000001
44
0.0000000001
40
0
40
0
40
0
40
0
40
0.057959621975484064
40
0.11325841667805096
40
0.11325841667805096
40
0.11325841667805096
40
0.11325841667805096
10
118.79653574115687
20
-82.638367968137416
30
0
10
118.72447217165144
20
-82.458778364240203
30
0
10
118.58365334806066
20
-82.107843808493115
30
0
10
118.3920431674656
20
-81.781890663813854
30
0
10
118.29848886615687
20
-81.622742968137416
30
0
0
SPLINE
5
1312
100
AcDbEntity
8
0
100
AcDbSpline
70
0
71
3
72
9
73
5
74
0
42
0.000000001
43
0.0000000001
44
0.0000000001
40
0
40
0
40
0
40
0
40
0.071065473697280362
40
0.13127769939196723
40
0.13127769939196723
40
0.13127769939196723
40
0.13127769939196723
10
118.29848886615687
20
-81.622742968137416
30
0
10
118.10410863952956
20
-81.758245124198709
30
0
10
117.74503428694564
20
-82.008555301348196
30
0
10
117.40140939560533
20
-82.279651272196404
30
0
10
117.24380136615687
20
-82.403992968137416
30
0
0
LINE
5
1313
100
AcDbEntity
8
0
100
AcDbLine
10
117.24380136615687
20
-82.40399296813743
30
0
11
116.68716074115687
21
-81.671571093137416
31
0
0
SPLINE
5
1314
100
AcDbEntity
8
0
100
AcDbSpline
70
0
71
3
72
9
73
5
74
0
42
0.000000001
43
0.0000000001
44
0.0000000001
40
0
40
0
40
0
40
0
40
0.033038460311759818
40
0.064426438480039983
40
0.064426438480039983
40
0.064426438480039983
40
0.064426438480039983
10
116.68716074115687
20
-81.671571093137416
30
0
10
116.75229564134419
20
-81.579836338514241
30
0
10
116.87931153737028
20
-81.400949566266377
30
0
10
116.89457047482674
20
-81.182361901534023
30
0
10
116.90200449115687
20
-81.075867968137416
30
0
0
LINE
5
1315
100
AcDbEntity
8
0
100
AcDbLine
10
116.90200449115687
20
-81.075867968137416
30
0
11
116.90200449115687
21
-79.640321093137416
31
0
0
LINE
5
1316
100
AcDbEntity
8
0
100
AcDbLine
10
116.90200449115687
20
-79.640321093137416
30
0
11
116.03286386615687
21
-79.640321093137402
31
0
0
SPLINE
5
1317
100
AcDbEntity
8
0
100
AcDbSpline
70
0
71
3
72
9
73
5
74
0
42
0.000000001
43
0.0000000001
44
0.0000000001
40
0
40
0
40
0
40
0
40
0.1751194682367371
40
0.31826667638088113
40
0.31826667638088113
40
0.31826667638088113
40
0.31826667638088113
10
116.03286386615687
20
-79.640321093137402
30
0
10
116.0152135018175
20
-80.242873110965803
30
0
10
115.98313527058616
20
-81.33796682037331
30
0
10
115.30342277187827
20
-82.187784854314089
30
0
10
114.99770761615687
20
-82.570008593137416
30
0
0
SPLINE
5
1318
100
AcDbEntity
8
0
100
AcDbSpline
70
0
71
3
72
9
73
5
74
0
42
0.000000001
43
0.0000000001
44
0.0000000001
40
0
40
0
40
0
40
0
40
0.052312790554246959
40
0.11154645846957506
40
0.11154645846957506
40
0.11154645846957506
40
0.11154645846957506
10
114.99770761615687
20
-82.570008593137416
30
0
10
114.89223658569976
20
-82.430892308432789
30
0
10
114.66734091880873
20
-82.134254933331306
30
0
10
114.4047352390627
20
-81.870320133551431
30
0
10
114.26528574115687
20
-81.730164843137416
30
0
0
SPLINE
5
1319
100
AcDbEntity
8
0
100
AcDbSpline
70
0
71
3
72
9
73
5
74
0
42
0.000000001
43
0.0000000001
44
0.0000000001
40
0
40
0
40
0
40
0
40
0.040204891031129689
40
0.081177805514481616
40
0.081177805514481616
40
0.081177805514481616
40
0.081177805514481616
10
114.26528574115687
20
-81.730164843137416
30
0
10
114.35975441250227
20
-81.633953009775254
30
0
10
114.55049636535945
20
-81.439691433719304
30
0
10
114.67571625564329
20
-81.197904970805808
30
0
10
114.73891855365687
20
-81.075867968137416
30
0
0
SPLINE
5
1320
100
AcDbEntity
8
0
100
AcDbSpline
70
0
71
3
72
9
73
5
74
0
42
0.000000001
43
0.0000000001
44
0.0000000001
40
0
40
0
40
0
40
0
40
0.040697270080270319
40
0.079588544051568955
40
0.079588544051568955
40
0.079588544051568955
40
0.079588544051568955
10
114.73891855365687
20
-81.075867968137416
30
0
10
114.79193160523721
20
-80.950422119050103
30
0
10
114.8956051829167
20
-80.705097249188341
30
0
10
114.93959212144799
20
-80.442478812475642
30
0
10
114.96108652240687
20
-80.314149218137416
30
0
0
SPLINE
5
1321
100
AcDbEntity
8
0
100
AcDbSpline
70
0
71
3
72
9
73
5
74
0
42
0.000000001
43
0.0000000001
44
0.0000000001
40
0
40
0
40
0
40
0
40
0.06040300688940501
40
0.16514575489090347
40
0.16514575489090347
40
0.16514575489090347
40
0.16514575489090347
10
114.96108652240687
20
-80.314149218137416
30
0
10
114.97439630870944
20
-80.113198972123968
30
0
10
115.01078613132873
20
-79.563787911609012
30
0
10
115.00875896180339
20
-79.013056703610147
30
0
10
115.00747324115687
20
-78.663758593137402
30
0
0
LINE
5
1322
100
AcDbEntity
8
0
100
AcDbLine
10
115.00747324115686
20
-78.663758593137402
30
0
11
117.94692636615687
21
-78.663758593137402
31
0
0
LINE
5
1323
100
AcDbEntity
8
0
100
AcDbLine
10
117.94692636615687
20
-78.663758593137402
30
0
11
117.94692636615687
21
-80.655946093137416
31
0
0
SPLINE
5
1324
100
AcDbEntity
8
0
100
AcDbSpline
70
0
71
3
72
9
73
5
74
0
42
0.000000001
43
0.0000000001
44
0.0000000001
40
0
40
0
40
0
40
0
40
0.034284159534261636
40
0.085163909257356438
40
0.085163909257356438
40
0.085163909257356438
40
0.085163909257356438
10
117.94692636615687
20
-80.655946093137416
30
0
10
118.04005111327064
20
-80.589689721253933
30
0
10
118.27137857238142
20
-80.425104918258626
30
0
10
118.49620270658848
20
-80.251719690484776
30
0
10
118.63052011615687
20
-80.148133593137416
30
0
0
SPLINE
5
1325
100
AcDbEntity
8
0
100
AcDbSpline
70
0
71
3
72
9
73
5
74
0
42
0.000000001
43
0.0000000001
44
0.0000000001
40
0
40
0
40
0
40
0
40
0.12996814190703274
40
0.27306787405372157
40
0.27306787405372157
40
0.27306787405372157
40
0.27306787405372157
10
120.00747324115687
20
-78.458680468137402
30
0
10
120.11352994621637
20
-78.037519274423161
30
0
10
120.33635900689845
20
-77.152644026427836
30
0
10
120.38327683426246
20
-76.241072212430353
30
0
10
120.40786386615687
20
-75.763367968137402
30
0
0
LINE
5
1326
100
AcDbEntity
8
0
100
AcDbLine
10
120.40786386615687
20
-75.763367968137416
30
0
11
119.63149667865687
21
-75.763367968137402
31
0
0
LINE
5
1327
100
AcDbEntity
8
0
100
AcDbLine
10
119.63149667865687
20
-75.763367968137402
30
0
11
119.61196542865687
21
-75.812196093137402
31
0
0
SPLINE
5
1328
100
AcDbEntity
8
0
100
AcDbSpline
70
0
71
3
72
9
73
5
74
0
42
0.000000001
43
0.0000000001
44
0.0000000001
40
0
40
0
40
0
40
0
40
0.1414291384387657
40
0.26811418865676928
40
0.26811418865676928
40
0.26811418865676928
40
0.26811418865676928
10
119.61196542865687
20
-75.812196093137402
30
0
10
119.63845221545724
20
-76.284119505899923
30
0
10
119.68866452270521
20
-77.178767980165631
30
0
10
119.90517238915399
20
-78.047976085131282
30
0
10
120.00747324115687
20
-78.458680468137402
30
0
0
LWPOLYLINE
5
1329
100
AcDbEntity
8
0
100
AcDbPolyline
90
4
70
1
43
0.0
10
118.23012949115687
20
-77.081727343137402
10
114.77309824115687
20
-77.081727343137402
10
114.77309824115687
20
-78.048524218137402
10
118.23012949115687
20
-78.048524218137402
0
LINE
5
1330
100
AcDbEntity
8
0
100
AcDbLine
10
128.78677011615687
20
-77.882508593137402
30
0
11
129.82680917865687
21
-80.343446093137416
31
0
0
SPLINE
5
1331
100
AcDbEntity
8
0
100
AcDbSpline
70
0
71
3
72
9
73
5
74
0
42
0.000000001
43
0.0000000001
44
0.0000000001
40
0
40
0
40
0
40
0
40
0.17847664906329977
40
0.45089776860560082
40
0.45089776860560082
40
0.45089776860560082
40
0.45089776860560082
10
129.82680917865687
20
-80.343446093137416
30
0
10
130.01892812998977
20
-79.776640488414927
30
0
10
130.50429138012635
20
-78.344680712478777
30
0
10
130.48983826388567
20
-76.826873426283385
30
0
10
130.48110605365687
20
-75.909852343137402
30
0
0
LINE
5
1332
100
AcDbEntity
8
0
100
AcDbLine
10
130.48110605365687
20
-75.909852343137402
30
0
11
129.48989511615687
21
-75.909852343137402
31
0
0
LINE
5
1333
100
AcDbEntity
8
0
100
AcDbLine
10
129.48989511615687
20
-75.909852343137402
30
0
11
129.48989511615687
21
-74.620789843137402
31
0
0
LINE
5
1334
100
AcDbEntity
8
0
100
AcDbLine
10
129.48989511615687
20
-74.620789843137402
30
0
11
130.51040292865687
21
-74.620789843137402
31
0
0
LINE
5
1335
100
AcDbEntity
8
0
100
AcDbLine
10
130.51040292865687
20
-74.620789843137402
30
0
11
130.52505136615687
21
-72.960633593137402
31
0
0
LINE
5
1336
100
AcDbEntity
8
0
100
AcDbLine
10
130.52505136615687
20
-72.960633593137402
30
0
11
131.82387949115687
21
-72.960633593137402
31
0
0
LINE
5
1337
100
AcDbEntity
8
0
100
AcDbLine
10
131.82387949115687
20
-72.960633593137402
30
0
11
131.80434824115687
21
-74.620789843137402
31
0
0
LINE
5
1338
100
AcDbEntity
8
0
100
AcDbLine
10
131.80434824115687
20
-74.620789843137402
30
0
11
134.36294199115687
21
-74.620789843137402
31
0
0
LINE
5
1339
100
AcDbEntity
8
0
100
AcDbLine
10
134.36294199115687
20
-74.620789843137402
30
0
11
134.25063730365687
21
-80.138367968137416
31
0
0
SPLINE
5
1340
100
AcDbEntity
8
0
100
AcDbSpline
70
0
71
3
72
9
73
5
74
0
42
0.000000001
43
0.0000000001
44
0.0000000001
40
0
40
0
40
0
40
0
40
0.090535794946936102
40
0.13957149417732476
40
0.13957149417732476
40
0.13957149417732476
40
0.13957149417732476
10
134.25063730365687
20
-80.138367968137416
30
0
10
134.24499314636282
20
-80.440451320409352
30
0
10
134.23629201917475
20
-80.906148063530708
30
0
10
134.17644761442779
20
-81.367783129992659
30
0
10
134.15542245990687
20
-81.529969530637416
30
0
0
SPLINE
5
1341
100
AcDbEntity
8
0
100
AcDbSpline
70
0
71
3
72
9
73
5
74
0
42
0.000000001
43
0.0000000001
44
0.0000000001
40
0
40
0
40
0
40
0
40
0.028167972584270406
40
0.056990657870995581
40
0.056990657870995581
40
0.056990657870995581
40
0.056990657870995581
10
134.15542245990687
20
-81.529969530637416
30
0
10
134.12726621136636
20
-81.620605753964028
30
0
10
134.07029927408666
20
-81.803984872886161
30
0
10
133.94685670777335
20
-81.951148083435044
30
0
10
133.88442636615687
20
-82.025574999387416
30
0
0
SPLINE
5
1342
100
AcDbEntity
8
0
100
AcDbSpline
70
0
71
3
72
9
73
5
74
0
42
0.000000001
43
0.0000000001
44
0.0000000001
40
0
40
0
40
0
40
0
40
0.030198095768299488
40
0.062824512616215827
40
0.062824512616215827
40
0.062824512616215827
40
0.062824512616215827
10
133.88442636615687
20
-82.025574999387416
30
0
10
133.80878228943172
20
-82.093586792860819
30
0
10
133.65141136482032
20
-82.235079415770088
30
0
10
133.45126055516351
20
-82.304476618472279
30
0
10
133.34731699115687
20
-82.340516405637416
30
0
0
SPLINE
5
1343
100
AcDbEntity
8
0
100
AcDbSpline
70
0
71
3
72
9
73
5
74
0
42
0.000000001
43
0.0000000001
44
0.0000000001
40
0
40
0
40
0
40
0
40
0.060791138185431172
40
0.17534780165815861
40
0.17534780165815861
40
0.17534780165815861
40
0.17534780165815861
10
133.34731699115687
20
-82.340516405637416
30
0
10
133.14657330794662
20
-82.369509348618124
30
0
10
132.56754214323468
20
-82.453137472173921
30
0
10
131.98188586064333
20
-82.452946111311235
30
0
10
131.59927011615687
20
-82.452821093137416
30
0
0
SPLINE
5
1344
100
AcDbEntity
8
0
100
AcDbSpline
70
0
71
3
72
9
73
5
74
0
42
0.000000001
43
0.0000000001
44
0.0000000001
40
0
40
0
40
0
40
0
40
0.075576410999306745
40
0.1506590807897214
40
0.1506590807897214
40
0.1506590807897214
40
0.1506590807897214
10
131.59927011615687
20
-82.452821093137416
30
0
10
131.54566652506642
20
-82.206636390922725
30
0
10
131.43880953551195
20
-81.715875312833234
30
0
10
131.3112689302265
20
-81.230079314790117
30
0
10
131.24770761615687
20
-80.987977343137416
30
0
0
SPLINE
5
1345
100
AcDbEntity
8
0
100
AcDbSpline
70
0
71
3
72
9
73
5
74
0
42
0.000000001
43
0.0000000001
44
0.0000000001
40
0
40
0
40
0
40
0
40
0.059032703331282251
40
0.10701627468174535
40
0.10701627468174535
40
0.10701627468174535
40
0.10701627468174535
10
131.24770761615687
20
-80.987977343137416
30
0
10
131.444185183152
20
-80.999331876603136
30
0
10
131.80036567450361
20
-81.01991571917992
30
0
10
132.15709468587281
20
-81.024834415719411
30
0
10
132.31704355365687
20
-81.027039843137416
30
0
0
SPLINE
5
1346
100
AcDbEntity
8
0
100
AcDbSpline
70
0
71
3
72
9
73
5
74
0
42
0.000000001
43
0.0000000001
44
0.0000000001
40
0
40
0
40
0
40
0
40
0.025181421990090099
40
0.045447299835000468
40
0.045447299835000468
40
0.045447299835000468
40
0.045447299835000468
10
132.31704355365687
20
-81.027039843137416
30
0
10
132.40241686022267
20
-81.024753225118715
30
0
10
132.55649816122821
20
-81.020626348775295
30
0
10
132.69144037917425
20
-80.947391893003498
30
0
10
132.75161386615687
20
-80.914735155637416
30
0
0
SPLINE
5
1347
100
AcDbEntity
8
0
100
AcDbSpline
70
0
71
3
72
9
73
5
74
0
42
0.000000001
43
0.0000000001
44
0.0000000001
40
0
40
0
40
0
40
0
40
0.018252879568787024
40
0.03786730360528006
40
0.03786730360528006
40
0.03786730360528006
40
0.03786730360528006
10
132.75161386615687
20
-80.914735155637416
30
0
10
132.79701842152571
20
-80.871934624655339
30
0
10
132.89121441272454
20
-80.783140925279966
30
0
10
132.91665754418941
20
-80.655923784086212
30
0
10
132.92983652240687
20
-80.590028124387416
30
0
0
SPLINE
5
1348
100
AcDbEntity
8
0
100
AcDbSpline
70
0
71
3
72
9
73
5
74
0
42
0.000000001
43
0.0000000001
44
0.0000000001
40
0
40
0
40
0
40
0
40
0.048184849568466963
40
0.1500488500088771
40
0.1500488500088771
40
0.1500488500088771
40
0.1500488500088771
10
132.92983652240687
20
-80.590028124387416
30
0
10
132.94030481863294
20
-80.429742304376376
30
0
10
132.97290335996576
20
-79.930608174441815
30
0
10
132.98506016638095
20
-79.430508487005099
30
0
10
132.99331308490687
20
-79.091004686887402
30
0
0
SPLINE
5
1349
100
AcDbEntity
8
0
100
AcDbSpline
70
0
71
3
72
9
73
5
74
0
42
0.000000001
43
0.0000000001
44
0.0000000001
40
0
40
0
40
0
40
0
40
0.14389353614171221
40
0.31816054735196841
40
0.31816054735196841
40
0.31816054735196841
40
0.31816054735196841
10
132.99331308490687
20
-79.091004686887402
30
0
10
133.00478180374876
20
-78.611489946347064
30
0
10
133.03014009267542
20
-77.551243069354584
30
0
10
133.03947149806919
20
-76.490730182146393
30
0
10
133.04458261615687
20
-75.909852343137402
30
0
0
LINE
5
1350
100
AcDbEntity
8
0
100
AcDbLine
10
133.04458261615687
20
-75.909852343137402
30
0
11
131.77993417865687
21
-75.909852343137402
31
0
0
SPLINE
5
1351
100
AcDbEntity
8
0
100
AcDbSpline
70
0
71
3
72
9
73
5
74
0
42
0.000000001
43
0.0000000001
44
0.0000000001
40
0
40
0
40
0
40
0
40
0.18694486493786378
40
0.31236593311182714
40
0.31236593311182714
40
0.31236593311182714
40
0.31236593311182714
10
131.77993417865687
20
-75.909852343137402
30
0
10
131.76772048461123
20
-76.533215203466341
30
0
10
131.74731263902225
20
-77.574791400804656
30
0
10
131.6451665808228
20
-78.611335338598536
30
0
10
131.60415292865687
20
-79.027528124387402
30
0
0
SPLINE
5
1352
100
AcDbEntity
8
0
100
AcDbSpline
70
0
71
3
72
9
73
5
74
0
42
0.000000001
43
0.0000000001
44
0.0000000001
40
0
40
0
40
0
40
0
40
0.096665140463986901
40
0.19819016515332269
40
0.19819016515332269
40
0.19819016515332269
40
0.19819016515332269
10
131.60415292865687
20
-79.027528124387402
30
0
10
131.54700130288231
20
-79.345501578478718
30
0
10
131.42982472716253
20
-79.997434747749864
30
0
10
131.1867026279935
20
-80.613696791988488
30
0
10
131.06216074115687
20
-80.929383593137416
30
0
0
SPLINE
5
1353
100
AcDbEntity
8
0
100
AcDbSpline
70
0
71
3
72
9
73
5
74
0
42
0.000000001
43
0.0000000001
44
0.0000000001
40
0
40
0
40
0
40
0
40
0.10231589600759103
40
0.20197582161893024
40
0.20197582161893024
40
0.20197582161893024
40
0.20197582161893024
10
131.06216074115687
20
-80.929383593137416
30
0
10
130.91673811093634
20
-81.239385696792283
30
0
10
130.62966780840387
20
-81.851342704769309
30
0
10
130.20650616316922
20
-82.378336191659557
30
0
10
129.99770761615687
20
-82.638367968137416
30
0
0
SPLINE
5
1354
100
AcDbEntity
8
0
100
AcDbSpline
70
0
71
3
72
9
73
5
74
0
42
0.000000001
43
0.0000000001
44
0.0000000001
40
0
40
0
40
0
40
0
40
0.071584429316925352
40
0.14472400587641712
40
0.14472400587641712
40
0.14472400587641712
40
0.14472400587641712
10
129.99770761615687
20
-82.638367968137416
30
0
10
129.80779213742477
20
-82.49365796621484
30
0
10
129.4238353311427
20
-82.201094187073778
30
0
10
129.01361537524994
20
-81.946646439586885
30
0
10
128.80630136615687
20
-81.818055468137416
30
0
0
SPLINE
5
1355
100
AcDbEntity
8
0
100
AcDbSpline
70
0
71
3
72
9
73
5
74
0
42
0.000000001
43
0.0000000001
44
0.0000000001
40
0
40
0
40
0
40
0
40
0.040178196769057442
40
0.080081000894158774
40
0.080081000894158774
40
0.080081000894158774
40
0.080081000894158774
10
128.80630136615687
20
-81.818055468137416
30
0
10
128.89853259416634
20
-81.720788617579871
30
0
10
129.082362871447
20
-81.526921610774082
30
0
10
129.24355873147024
20
-81.313865579367359
30
0
10
129.32387949115687
20
-81.207703905637416
30
0
0
LINE
5
1356
100
AcDbEntity
8
0
100
AcDbLine
10
129.32387949115687
20
-81.207703905637416
30
0
11
126.61391855365687
21
-81.437196093137416
31
0
0
SPLINE
5
1357
100
AcDbEntity
8
0
100
AcDbSpline
70
0
71
3
72
9
73
5
74
0
42
0.000000001
43
0.0000000001
44
0.0000000001
40
0
40
0
40
0
40
0
40
0.054545763811405121
40
0.095679112176878994
40
0.095679112176878994
40
0.095679112176878994
40
0.095679112176878994
10
126.61391855365687
20
-81.437196093137416
30
0
10
126.43300463107212
20
-81.460078651836909
30
0
10
126.1156622329861
20
-81.500217110769711
30
0
10
125.81189412635423
20
-81.599564040555762
30
0
10
125.68130136615687
20
-81.642274218137416
30
0
0
LINE
5
1358
100
AcDbEntity
8
0
100
AcDbLine
10
125.68130136615687
20
-81.642274218137416
30
0
11
125.07583261615687
21
-80.460633593137416
31
0
0
SPLINE
5
1359
100
AcDbEntity
8
0
100
AcDbSpline
70
0
71
3
72
9
73
5
74
0
42
0.000000001
43
0.0000000001
44
0.0000000001
40
0
40
0
40
0
40
0
40
0.11286672847430285
40
0.33301731353536917
40
0.33301731353536917
40
0.33301731353536917
40
0.33301731353536917
10
125.07583261615687
20
-80.460633593137416
30
0
10
125.27822478991546
20
-80.141493401908974
30
0
10
125.87539012727184
20
-79.199858869210928
30
0
10
126.14950438631809
20
-78.112835270094848
30
0
10
126.33071542865687
20
-77.394227343137402
30
0
0
LINE
5
1360
100
AcDbEntity
8
0
100
AcDbLine
10
126.33071542865686
20
-77.394227343137402
30
0
11
125.11489511615687
21
-77.394227343137402
31
0
0
LINE
5
1361
100
AcDbEntity
8
0
100
AcDbLine
10
125.11489511615687
20
-77.394227343137402
30
0
11
125.11489511615687
21
-76.144227343137402
31
0
0
LINE
5
1362
100
AcDbEntity
8
0
100
AcDbLine
10
125.11489511615687
20
-76.144227343137402
30
0
11
129.62661386615687
21
-76.144227343137402
31
0
0
LINE
5
1363
100
AcDbEntity
8
0
100
AcDbLine
10
129.62661386615687
20
-76.144227343137402
30
0
11
129.62661386615687
21
-77.394227343137402
31
0
0
LINE
5
1364
100
AcDbEntity
8
0
100
AcDbLine
10
129.62661386615687
20
-77.394227343137402
30
0
11
127.75161386615687
21
-77.394227343137402
31
0
0
SPLINE
5
1365
100
AcDbEntity
8
0
100
AcDbSpline
70
0
71
3
72
9
73
5
74
0
42
0.000000001
43
0.0000000001
44
0.0000000001
40
0
40
0
40
0
40
0
40
0.14591768640800551
40
0.28913399812398399
40
0.28913399812398399
40
0.28913399812398399
40
0.28913399812398399
10
127.75161386615687
20
-77.394227343137402
30
0
10
127.59861825160593
20
-77.855994585927462
30
0
10
127.2954594309071
20
-78.770980372758402
30
0
10
126.95396762008494
20
-79.672358457072633
30
0
10
126.78481699115687
20
-80.118836718137416
30
0
0
SPLINE
5
1366
100
AcDbEntity
8
0
100
AcDbSpline
70
0
71
3
72
9
73
5
74
0
42
0.000000001
43
0.0000000001
44
0.0000000001
40
0
40
0
40
0
40
0
40
0.084641304789421154
40
0.16077345745549859
40
0.16077345745549859
40
0.16077345745549859
40
0.16077345745549859
10
126.78481699115687
20
-80.118836718137416
30
0
10
127.06683887463657
20
-80.110467820053486
30
0
10
127.60253044269487
20
-80.094571365203279
30
0
10
128.13779488082741
20
-80.067961097385307
30
0
10
128.39126230365687
20
-80.055360155637416
30
0
0
SPLINE
5
1367
100
AcDbEntity
8
0
100
AcDbSpline
70
0
71
3
72
9
73
5
74
0
42
0.000000001
43
0.0000000001
44
0.0000000001
40
0
40
0
40
0
40
0
40
0.10056949221791305
40
0.19380452424110353
40
0.19380452424110353
40
0.19380452424110353
40
0.19380452424110353
10
128.39126230365687
20
-80.055360155637416
30
0
10
128.27697920796351
20
-79.740184997896662
30
0
10
128.05674759993605
20
-79.132820178293045
30
0
10
127.81775820581565
20
-78.532592743454629
30
0
10
127.70278574115687
20
-78.243836718137402
30
0
0
LINE
5
1368
100
AcDbEntity
8
0
100
AcDbLine
10
127.7027857411569
20
-78.243836718137402
30
0
11
128.78677011615687
21
-77.882508593137402
31
0
0
LWPOLYLINE
5
1369
100
AcDbEntity
8
0
100
AcDbPolyline
90
4
70
1
43
0.0
10
125.53481699115687
20
-74.933289843137402
10
129.28481699115687
20
-74.933289843137402
10
129.28481699115687
20
-73.683289843137402
10
125.53481699115687
20
-73.683289843137402
0
ENDSEC
0
SECTION
2
OBJECTS
0
DICTIONARY
5
C
100
AcDbDictionary
3
ACAD_GROUP
350
D
3
ACAD_MLINESTYLE
350
17
0
DICTIONARY
5
D
100
AcDbDictionary
0
DICTIONARY
5
1A
330
C
100
AcDbDictionary
0
DICTIONARY
5
17
100
AcDbDictionary
0
ENDSEC
0
EOF
