0
SECTION
2
HEADER
9
$INSUNITS
70
4
9
$ACADVER
1
AC1014
9
$HANDSEED
5
FFFF
0
ENDSEC
0
SECTION
2
TABLES
0
TABLE
2
VPORT
5
8
100
AcDbSymbolTable
0
ENDTAB
0
TABLE
2
LTYPE
5
5
100
AcDbSymbolTable
0
LTYPE
5
14
100
AcDbSymbolTableRecord
100
AcDbLinetypeTableRecord
2
BYBLOCK
70
0
0
LTYPE
5
15
100
AcDbSymbolTableRecord
100
AcDbLinetypeTableRecord
2
BYLAYER
70
0
0
ENDTAB
0
TABLE
2
LAYER
5
2
100
AcDbSymbolTable
70
2
0
LAYER
5
50
100
AcDbSymbolTableRecord
100
AcDbLayerTableRecord
2
0
70
0
6
CONTINUOUS
0
ENDTAB
0
TABLE
2
STYLE
5
3
100
AcDbSymbolTable
70
1
0
STYLE
5
11
100
AcDbSymbolTableRecord
100
AcDbTextStyleTableRecord
2
STANDARD
70
0
0
ENDTAB
0
TABLE
2
VIEW
5
6
100
AcDbSymbolTable
70
0
0
ENDTAB
0
TABLE
2
UCS
5
7
100
AcDbSymbolTable
70
0
0
ENDTAB
0
TABLE
2
APPID
5
9
100
AcDbSymbolTable
70
2
0
APPID
5
12
100
AcDbSymbolTableRecord
100
AcDbRegAppTableRecord
2
ACAD
70
0
0
ENDTAB
0
TABLE
2
DIMSTYLE
5
A
100
AcDbSymbolTable
70
1
0
ENDTAB
0
TABLE
2
BLOCK_RECORD
5
1
100
AcDbSymbolTable
70
1
0
BLOCK_RECORD
5
1F
100
AcDbSymbolTableRecord
100
AcDbBlockTableRecord
2
*MODEL_SPACE
0
BLOCK_RECORD
5
1B
100
AcDbSymbolTableRecord
100
AcDbBlockTableRecord
2
*PAPER_SPACE
0
ENDTAB
0
ENDSEC
0
SECTION
2
BLOCKS
0
BLOCK
5
20
100
AcDbEntity
100
AcDbBlockBegin
2
*MODEL_SPACE
0
ENDBLK
5
21
100
AcDbEntity
100
AcDbBlockEnd
0
BLOCK
5
1C
100
AcDbEntity
100
AcDbBlockBegin
2
*PAPER_SPACE
0
ENDBLK
5
1D
100
AcDbEntity
100
AcDbBlockEnd
0
ENDSEC
0
SECTION
2
ENTITIES
0
SPLINE
5
100
100
AcDbEntity
8
0
100
AcDbSpline
70
0
71
3
72
9
73
5
74
0
42
0.000000001
43
0.0000000001
44
0.0000000001
40
0
40
0
40
0
40
0
40
0.055306053053620144
40
0.11461071595829297
40
0.11461071595829297
40
0.11461071595829297
40
0.11461071595829297
10
31.922114965949664
20
-90.016235795319091
30
0
10
32.052595341022467
20
-89.8780394247608
30
0
10
32.322989780327369
20
-89.591655130492541
30
0
10
32.35372359920337
20
-89.197971997823373
30
0
10
32.369626638923293
20
-88.994262900650511
30
0
0
SPLINE
5
101
100
AcDbEntity
8
0
100
AcDbSpline
70
0
71
3
72
9
73
5
74
0
42
0.000000001
43
0.0000000001
44
0.0000000001
40
0
40
0
40
0
40
0
40
0.05962334477174442
40
0.13265003927420296
40
0.13265003927420296
40
0.13265003927420296
40
0.13265003927420296
10
31.925290701423297
20
-88.029419269859801
30
0
10
31.750026367003894
20
-87.929708520338153
30
0
10
31.360098211629463
20
-87.707872008301734
30
0
10
30.909932205209387
20
-87.694182076241916
30
0
10
30.66210615399898
20
-87.686645474731932
30
0
0
LWPOLYLINE
5
102
100
AcDbEntity
8
0
100
AcDbPolyline
90
4
70
1
43
0.0
10
-20.147572334222996
20
-98.85764299893998
10
-20.147572334222996
20
-150.40292985753101
10
137.81385365587886
20
-150.40292985753101
10
137.81385365587886
20
-98.85764299893998
0
LINE
5
103
100
AcDbEntity
8
0
100
AcDbLine
10
27.342282412086139
20
-82.113403764069091
30
0
11
30.833493349586139
21
-82.113403764069091
31
0
0
SPLINE
5
104
100
AcDbEntity
8
0
100
AcDbSpline
70
0
71
3
72
9
73
5
74
0
42
0.000000001
43
0.0000000001
44
0.0000000001
40
0
40
0
40
0
40
0
40
0.09765444040122509
40
0.19624832010920501
40
0.19624832010920501
40
0.19624832010920501
40
0.19624832010920501
10
33.309079287086135
20
-82.72277900248767
30
0
10
33.562718646516664
20
-82.946329543809938
30
0
10
34.072437385340031
20
-83.395581190880463
30
0
10
34.143172039800298
20
-84.071618473319091
30
0
10
34.178708670173293
20
-84.411255207359801
30
0
0
SPLINE
5
105
100
AcDbEntity
8
0
100
AcDbSpline
70
0
71
3
72
9
73
5
74
0
42
0.000000001
43
0.0000000001
44
0.0000000001
40
0
40
0
40
0
40
0
40
0.071293702052175917
40
0.1314098181490965
40
0.1314098181490965
40
0.1314098181490965
40
0.1314098181490965
10
30.681148645911822
20
-90.384399380981932
30
0
10
30.92346848445289
20
-90.375006012314685
30
0
10
31.370116715643015
20
-90.35769198831477
30
0
10
31.748853882371783
20
-90.123411986475404
30
0
10
31.922114965949664
20
-90.016235795319091
30
0
0
SPLINE
5
106
100
AcDbEntity
8
0
100
AcDbSpline
70
0
71
3
72
9
73
5
74
0
42
0.000000001
43
0.0000000001
44
0.0000000001
40
0
40
0
40
0
40
0
40
0.064681396639060335
40
0.11990696577754527
40
0.11990696577754527
40
0.11990696577754527
40
0.11990696577754527
10
30.433591482673297
20
-86.106079306900511
30
0
10
30.653467944615088
20
-86.096880950401243
30
0
10
31.061076944533006
20
-86.079828952836522
30
0
10
31.40505006627615
20
-85.863117112495075
30
0
10
31.563473818336139
20
-85.763306107819091
30
0
0
SPLINE
5
107
100
AcDbEntity
8
0
100
AcDbSpline
70
0
71
3
72
9
73
5
74
0
42
0.000000001
43
0.0000000001
44
0.0000000001
40
0
40
0
40
0
40
0
40
0.094251976262682946
40
0.22121342963592616
40
0.22121342963592616
40
0.22121342963592616
40
0.22121342963592616
10
31.976071474586139
20
-84.804809775650511
30
0
10
31.874491882404321
20
-84.477054196764385
30
0
10
31.636080224011796
20
-83.707797799576085
30
0
10
30.803516032981861
20
-83.686913567735246
30
0
10
30.325680849586139
20
-83.67492743998767
30
0
0
LINE
5
108
100
AcDbEntity
8
0
100
AcDbLine
10
30.325680849586139
20
-83.67492743998767
30
0
11
29.437008974586139
21
-83.67492743998767
31
0
0
LINE
5
109
100
AcDbEntity
8
0
100
AcDbLine
10
31.017573950324653
20
-91.94592305690054
30
0
11
27.342282412086139
21
-91.945923056900511
31
0
0
SPLINE
5
110
100
AcDbEntity
8
0
100
AcDbSpline
70
0
71
3
72
9
73
5
74
0
42
0.000000001
43
0.0000000001
44
0.0000000001
40
0
40
0
40
0
40
0
40
0.056330685212670428
40
0.109367859162619
40
0.109367859162619
40
0.109367859162619
40
0.109367859162619
10
32.369626638923293
20
-88.994262900650511
30
0
10
32.353446633818393
20
-88.800392832492633
30
0
10
32.322032627173826
20
-88.423987783804066
30
0
10
32.054856085734272
20
-88.158274875552323
30
0
10
31.925290701423297
20
-88.029419269859801
30
0
0
LINE
5
111
100
AcDbEntity
8
0
100
AcDbLine
10
27.342282412086139
20
-91.945923056900511
30
0
11
27.342282412086139
21
-82.113403764069091
31
0
0
SPLINE
5
112
100
AcDbEntity
8
0
100
AcDbSpline
70
0
71
3
72
9
73
5
74
0
42
0.000000001
43
0.0000000001
44
0.0000000001
40
0
40
0
40
0
40
0
40
0.22749197116957126
40
0.41753438045354585
40
0.41753438045354585
40
0.41753438045354585
40
0.41753438045354585
10
75.43626232650665
20
-156.37731068618533
30
0
10
75.040024248782629
20
-157.02418251845029
30
0
10
74.312776515844874
20
-158.21143861513374
30
0
10
73.505735694869955
20
-159.34584487221889
30
0
10
73.138407902983701
20
-159.86217432506319
30
0
0
LINE
5
113
100
AcDbEntity
8
0
100
AcDbLine
10
67.94602795150665
20
-160.34459524638891
30
0
11
70.205792622832334
21
-160.34459524638891
31
0
0
LINE
5
114
100
AcDbEntity
8
0
100
AcDbLine
10
29.437008974586139
20
-87.686645474731932
30
0
11
29.437008974586139
21
-90.384399380981932
31
0
0
LWPOLYLINE
5
115
100
AcDbEntity
8
0
100
AcDbPolyline
90
4
70
1
43
0.0
10
-20.137325266061055
20
-79.338730324292612
10
64.32103581275112
20
-79.338730324292612
10
64.321035812751106
20
-27.793443465701611
10
-20.137325266061062
20
-27.793443465701611
0
LINE
5
116
100
AcDbEntity
8
0
100
AcDbLine
10
60.531963544158017
20
-156.99303381927248
30
0
11
60.531963544158017
21
-157.11998694427248
31
0
0
LINE
5
117
100
AcDbEntity
8
0
100
AcDbLine
10
25.603026030097613
20
-89.667114701569091
30
0
11
25.603026030097613
21
-91.590454068481932
31
0
0
LINE
5
118
100
AcDbEntity
8
0
100
AcDbLine
10
66.16868420150665
20
-160.34459524638891
30
0
11
66.16868420150665
21
-159.78600197322604
31
0
0
LINE
5
119
100
AcDbEntity
8
0
100
AcDbLine
10
62.77903481033232
20
-162.93443971164464
30
0
11
61.687237458495176
21
-164.0897136259818
31
0
0
SPLINE
5
120
100
AcDbEntity
8
0
100
AcDbSpline
70
0
71
3
72
9
73
5
74
0
42
0.000000001
43
0.0000000001
44
0.0000000001
40
0
40
0
40
0
40
0
40
0.096320664143080173
40
0.18530966106512797
40
0.18530966106512797
40
0.18530966106512797
40
0.18530966106512797
10
54.571515755919492
20
-158.19908850677248
30
0
10
54.893197223445696
20
-158.25810355543393
30
0
10
55.512074639299755
20
-158.37164158761516
30
0
10
55.998053244512214
20
-158.76966752332604
30
0
10
56.231428818968809
20
-158.96080666072604
30
0
0
SPLINE
5
121
100
AcDbEntity
8
0
100
AcDbSpline
70
0
71
3
72
9
73
5
74
0
42
0.000000001
43
0.0000000001
44
0.0000000001
40
0
40
0
40
0
40
0
40
0.10037718621636915
40
0.21270786925868462
40
0.21270786925868462
40
0.21270786925868462
40
0.21270786925868462
10
80.984114842680967
20
-154.95543652065035
30
0
10
80.71170282137075
20
-154.76105215585579
30
0
10
80.134438377152847
20
-154.3491350100262
30
0
10
79.535672037222227
20
-153.96911322005758
30
0
10
79.219464497832334
20
-153.76842432506319
30
0
0
SPLINE
5
122
100
AcDbEntity
8
0
100
AcDbSpline
70
0
71
3
72
9
73
5
74
0
42
0.000000001
43
0.0000000001
44
0.0000000001
40
0
40
0
40
0
40
0
40
0.12435016806901127
40
0.26048338998903381
40
0.26048338998903381
40
0.26048338998903381
40
0.26048338998903381
10
21.039060232673297
20
-84.684204545319091
30
0
10
20.787410981749321
20
-85.024868569229355
30
0
10
20.260266941762985
20
-85.738476931593681
30
0
10
20.204778944236388
20
-86.626085897488068
30
0
10
20.175779936347613
20
-87.089966025650511
30
0
0
LINE
5
123
100
AcDbEntity
8
0
100
AcDbLine
10
30.66210615399898
20
-87.686645474731904
30
0
11
29.437008974586139
21
-87.686645474731932
31
0
0
LINE
5
124
100
AcDbEntity
8
0
100
AcDbLine
10
33.719466166762388
20
-153.64147179610964
30
0
11
33.719466166762388
21
-159.37340491302248
31
0
0
SPLINE
5
125
100
AcDbEntity
8
0
100
AcDbSpline
70
0
71
3
72
9
73
5
74
0
42
0.000000001
43
0.0000000001
44
0.0000000001
40
0
40
0
40
0
40
0
40
0.12730989139639554
40
0.27620948587024213
40
0.27620948587024213
40
0.27620948587024213
40
0.27620948587024213
10
55.910872655180967
20
-162.68370681293248
30
0
10
55.545683866811117
20
-162.91383274338358
30
0
10
54.753376164912702
20
-163.41311024836088
30
0
10
53.814477222519663
20
-163.45266645127401
30
0
10
53.308333592680967
20
-163.47399049289464
30
0
0
SPLINE
5
126
100
AcDbEntity
8
0
100
AcDbSpline
70
0
71
3
72
9
73
5
74
0
42
0.000000001
43
0.0000000001
44
0.0000000001
40
0
40
0
40
0
40
0
40
0.12615969698384352
40
0.26876178154822494
40
0.26876178154822494
40
0.26876178154822494
40
0.26876178154822494
10
14.894529459510455
20
-85.30627497702838
30
0
10
14.801329299674748
20
-84.849439885582569
30
0
10
14.602782207403013
20
-83.876230405962133
30
0
10
13.599000576310463
20
-83.786182463511025
30
0
10
13.066404936347613
20
-83.73840400248767
30
0
0
SPLINE
5
127
100
AcDbEntity
8
0
100
AcDbSpline
70
0
71
3
72
9
73
5
74
0
42
0.000000001
43
0.0000000001
44
0.0000000001
40
0
40
0
40
0
40
0
40
0.17340534933044416
40
0.3492123854151889
40
0.3492123854151889
40
0.3492123854151889
40
0.3492123854151889
10
78.521222310332334
20
-163.3597331572318
30
0
10
78.005659571723967
20
-163.62345475985171
30
0
10
76.967393483187578
20
-164.15455054375934
30
0
10
75.856086162356064
20
-164.50830126500171
30
0
10
75.296611027983701
20
-164.68639307506322
30
0
0
SPLINE
5
128
100
AcDbEntity
8
0
100
AcDbSpline
70
0
71
3
72
9
73
5
74
0
42
0.000000001
43
0.0000000001
44
0.0000000001
40
0
40
0
40
0
40
0
40
0.12722653571141923
40
0.24535872799469299
40
0.24535872799469299
40
0.24535872799469299
40
0.24535872799469299
10
47.982650237349546
20
-160.74449830539464
30
0
10
47.947415343531091
20
-161.18328400946609
30
0
10
47.87946419890563
20
-162.02949035793915
30
0
10
47.272130919221169
20
-162.6189134935837
30
0
10
46.979719834593809
20
-162.90270143039464
30
0
0
SPLINE
5
129
100
AcDbEntity
8
0
100
AcDbSpline
70
0
71
3
72
9
73
5
74
0
42
0.000000001
43
0.0000000001
44
0.0000000001
40
0
40
0
40
0
40
0
40
0.12978224350113177
40
0.28664723767075806
40
0.28664723767075806
40
0.28664723767075806
40
0.28664723767075806
10
25.603026030097613
20
-91.590454068481932
30
0
10
25.195260967767155
20
-91.743762224724776
30
0
10
24.294639083120444
20
-92.082370637662478
30
0
10
23.331033462524289
20
-92.10495252685493
30
0
10
22.803709385429034
20
-92.11731025248767
30
0
0
LINE
5
130
100
AcDbEntity
8
0
100
AcDbLine
10
29.437008974586139
20
-83.67492743998767
30
0
11
29.437008974586139
21
-86.106079306900511
31
0
0
LINE
5
131
100
AcDbEntity
8
0
100
AcDbLine
10
82.545632558135068
20
-154.79674511440035
30
0
11
82.697982030180967
21
-156.3201820183539
31
0
0
SPLINE
5
132
100
AcDbEntity
8
0
100
AcDbSpline
70
0
71
3
72
9
73
5
74
0
42
0.000000001
43
0.0000000001
44
0.0000000001
40
0
40
0
40
0
40
0
40
0.17954396528991048
40
0.35486413560884
40
0.35486413560884
40
0.35486413560884
40
0.35486413560884
10
82.647198872832334
20
-160.09068899638891
30
0
10
82.231668556473409
20
-160.52293289393077
30
0
10
81.410383328112317
20
-161.37725209550183
30
0
10
80.462283938459422
20
-162.08811974966395
30
0
10
79.993876652983701
20
-162.4393230009818
30
0
0
SPLINE
5
133
100
AcDbEntity
8
0
100
AcDbSpline
70
0
71
3
72
9
73
5
74
0
42
0.000000001
43
0.0000000001
44
0.0000000001
40
0
40
0
40
0
40
0
40
0.19049226268202962
40
0.34814830269175023
40
0.34814830269175023
40
0.34814830269175023
40
0.34814830269175023
10
33.719466166762388
20
-159.37340491302248
30
0
10
33.764946917082824
20
-160.08788612894989
30
0
10
33.848068645001192
20
-161.393689415278
30
0
10
35.092135897801732
20
-161.69396877296649
30
0
10
35.655501323012388
20
-161.82994776256322
30
0
0
LINE
5
134
100
AcDbEntity
8
0
100
AcDbLine
10
66.16868420150665
20
-161.91881471164464
30
0
11
61.611065106658017
21
-161.91881471164464
31
0
0
LINE
5
135
100
AcDbEntity
8
0
100
AcDbLine
10
12.139646885429034
20
-91.945923056900511
30
0
11
10.044920546446452
21
-91.945923056900511
31
0
0
LINE
5
136
100
AcDbEntity
8
0
100
AcDbLine
10
77.18186779525665
20
-156.88512318618533
30
0
11
75.512432294158017
21
-157.05650978572604
31
0
0
SPLINE
5
137
100
AcDbEntity
8
0
100
AcDbSpline
70
0
71
3
72
9
73
5
74
0
42
0.000000001
43
0.0000000001
44
0.0000000001
40
0
40
0
40
0
40
0
40
0.075130839582970704
40
0.20563890640902996
40
0.20563890640902996
40
0.20563890640902996
40
0.20563890640902996
10
45.437239842680967
20
-160.17320924289464
30
0
10
45.232932392038059
20
-160.02718633924979
30
0
10
44.673727131526817
20
-159.62751038217436
30
0
10
44.034097003401357
20
-159.3710973277451
30
0
10
43.628157811430967
20
-159.2083656121039
30
0
0
LINE
5
138
100
AcDbEntity
8
0
100
AcDbLine
10
70.980204777983701
20
-158.26256447322604
30
0
11
70.510479645995176
21
-156.81529932506319
31
0
0
SPLINE
5
139
100
AcDbEntity
8
0
100
AcDbSpline
70
0
71
3
72
9
73
5
74
0
42
0.000000001
43
0.0000000001
44
0.0000000001
40
0
40
0
40
0
40
0
40
0.085826009892480903
40
0.17499159204674786
40
0.17499159204674786
40
0.17499159204674786
40
0.17499159204674786
10
56.231428818968809
20
-158.96080666072604
30
0
10
56.415624716262855
20
-159.18882797898738
30
0
10
56.791183749664768
20
-159.65374314343617
30
0
10
56.838772580295007
20
-160.25016604435592
30
0
10
56.863021092680967
20
-160.55406861789464
30
0
0
SPLINE
5
140
100
AcDbEntity
8
0
100
AcDbSpline
70
0
71
3
72
9
73
5
74
0
42
0.000000001
43
0.0000000001
44
0.0000000001
40
0
40
0
40
0
40
0
40
0.2103757333931412
40
0.3845799361553085
40
0.3845799361553085
40
0.3845799361553085
40
0.3845799361553085
10
43.628157811430967
20
-159.2083656121039
30
0
10
42.957975146176544
20
-158.8800965780982
30
0
10
41.732839516420754
20
-158.28000034977623
30
0
10
41.451429925107732
20
-156.96174785356288
30
0
10
41.323959069518125
20
-156.36461549289461
30
0
0
SPLINE
5
141
100
AcDbEntity
8
0
100
AcDbSpline
70
0
71
3
72
9
73
5
74
0
42
0.000000001
43
0.0000000001
44
0.0000000001
40
0
40
0
40
0
40
0
40
0.34538542968619573
40
0.67110402552948056
40
0.67110402552948056
40
0.67110402552948056
40
0.67110402552948056
10
39.654524760512388
20
-159.24645178802248
30
0
10
39.505066073682841
20
-160.52914729567158
30
0
10
39.214659131870654
20
-163.0214994469884
30
0
10
36.758651364999345
20
-163.4415212144819
30
0
10
35.566634373930967
20
-163.6453776884818
30
0
0
SPLINE
5
142
100
AcDbEntity
8
0
100
AcDbSpline
70
0
71
3
72
9
73
5
74
0
42
0.000000001
43
0.0000000001
44
0.0000000001
40
0
40
0
40
0
40
0
40
0.15421837557625059
40
0.28399068510232561
40
0.28399068510232561
40
0.28399068510232561
40
0.28399068510232561
10
44.129623608855283
20
-163.6453776884818
30
0
10
43.610998184322312
20
-163.63157044868828
30
0
10
42.655957716062566
20
-163.60614463627343
30
0
10
41.767866964192663
20
-163.25838923169817
30
0
10
41.362045245436704
20
-163.09947901256322
30
0
0
LINE
5
143
100
AcDbEntity
8
0
100
AcDbLine
10
58.754619794158017
20
-153.13365870006319
30
0
11
68.39036388900665
21
-153.13365870006319
31
0
0
SPLINE
5
144
100
AcDbEntity
8
0
100
AcDbSpline
70
0
71
3
72
9
73
5
74
0
42
0.000000001
43
0.0000000001
44
0.0000000001
40
0
40
0
40
0
40
0
40
0.19097182006171737
40
0.3674971511303482
40
0.3674971511303482
40
0.3674971511303482
40
0.3674971511303482
10
61.192120747832334
20
-159.50670593269106
30
0
10
60.481509093502943
20
-159.43002600857548
30
0
10
59.114041587345866
20
-159.28246678411892
30
0
10
58.871245582819007
20
-157.94173495022002
30
0
10
58.754619794158017
20
-157.29772143848177
30
0
0
SPLINE
5
145
100
AcDbEntity
8
0
100
AcDbSpline
70
0
71
3
72
9
73
5
74
0
42
0.000000001
43
0.0000000001
44
0.0000000001
40
0
40
0
40
0
40
0
40
0.12456177654009849
40
0.24474815103114339
40
0.24474815103114339
40
0.24474815103114339
40
0.24474815103114339
10
41.323959069518125
20
-156.36461549289461
30
0
10
41.364270542210946
20
-155.93546606398502
30
0
10
41.443477492215649
20
-155.09224166434035
30
0
10
42.063620629920599
20
-154.51730601433158
30
0
10
42.368148999480283
20
-154.23497729785677
30
0
0
LINE
5
146
100
AcDbEntity
8
0
100
AcDbLine
10
60.176495747832334
20
-161.91881471164464
30
0
11
57.573956685332334
21
-161.91881471164464
31
0
0
SPLINE
5
147
100
AcDbEntity
8
0
100
AcDbSpline
70
0
71
3
72
9
73
5
74
0
42
0.000000001
43
0.0000000001
44
0.0000000001
40
0
40
0
40
0
40
0
40
0.11877941704176037
40
0.18815846475626524
40
0.18815846475626524
40
0.18815846475626524
40
0.18815846475626524
10
70.16770763900665
20
-156.49791651256319
30
0
10
70.093857612342532
20
-156.88712312426264
30
0
10
69.976871791184266
20
-157.50366528581074
30
0
10
69.812531060700167
20
-158.10913622993584
30
0
10
69.751934247283017
20
-158.33238952644106
30
0
0
SPLINE
5
148
100
AcDbEntity
8
0
100
AcDbSpline
70
0
71
3
72
9
73
5
74
0
42
0.000000001
43
0.0000000001
44
0.0000000001
40
0
40
0
40
0
40
0
40
0.090843087911834305
40
0.16579766510563818
40
0.16579766510563818
40
0.16579766510563818
40
0.16579766510563818
10
81.720437245635068
20
-161.34752564914464
30
0
10
81.989298826292426
20
-161.4869075123118
30
0
10
82.479997935429523
20
-161.74129326693972
30
0
10
82.979828714167368
20
-161.97720289435898
30
0
10
83.205794530180967
20
-162.08385401256322
30
0
0
LINE
5
149
100
AcDbEntity
8
0
100
AcDbLine
10
13.218748745952276
20
-88.51818868190054
30
0
11
12.139646885429034
21
-88.518188681900511
31
0
0
SPLINE
5
150
100
AcDbEntity
8
0
100
AcDbSpline
70
0
71
3
72
9
73
5
74
0
42
0.000000001
43
0.0000000001
44
0.0000000001
40
0
40
0
40
0
40
0
40
0.12628272526866041
40
0.2849339126469333
40
0.2849339126469333
40
0.2849339126469333
40
0.2849339126469333
10
70.789775090483701
20
-160.33190064914464
30
0
10
71.080166650688753
20
-160.02622435461154
30
0
10
71.735382186090305
20
-159.33652160691256
30
0
10
72.26964264527777
20
-158.5488156156207
30
0
10
72.567118840483701
20
-158.11022096164461
30
0
0
LINE
5
151
100
AcDbEntity
8
0
100
AcDbLine
10
75.283917622832334
20
-159.95104127414461
30
0
11
75.068096356658017
21
-158.4149085808539
31
0
0
SPLINE
5
152
100
AcDbEntity
8
0
100
AcDbSpline
70
0
71
3
72
9
73
5
74
0
42
0.000000001
43
0.0000000001
44
0.0000000001
40
0
40
0
40
0
40
0
40
0.094251976262682946
40
0.22121342963592616
40
0.22121342963592616
40
0.22121342963592616
40
0.22121342963592616
10
54.26682873275665
20
-156.33287721164461
30
0
10
54.165249140574829
20
-156.00512163275849
30
0
10
53.926837482182307
20
-155.23586523557017
30
0
10
53.094273291152376
20
-155.21498100372935
30
0
10
52.61643810775665
20
-155.20299487598177
30
0
0
SPLINE
5
153
100
AcDbEntity
8
0
100
AcDbSpline
70
0
71
3
72
9
73
5
74
0
42
0.000000001
43
0.0000000001
44
0.0000000001
40
0
40
0
40
0
40
0
40
0.21488250528903374
40
0.41646357129815859
40
0.41646357129815859
40
0.41646357129815859
40
0.41646357129815859
10
17.973142740760455
20
-87.242309537231932
30
0
10
18.025703719920632
20
-86.509573239514054
30
0
10
18.127572101725526
20
-85.089457744504699
30
0
10
19.005153953999194
20
-83.971613252083614
30
0
10
19.429930326972613
20
-83.430542435944091
30
0
0
SPLINE
5
154
100
AcDbEntity
8
0
100
AcDbSpline
70
0
71
3
72
9
73
5
74
0
42
0.000000001
43
0.0000000001
44
0.0000000001
40
0
40
0
40
0
40
0
40
0.070022551736478547
40
0.12813548931745039
40
0.12813548931745039
40
0.12813548931745039
40
0.12813548931745039
10
45.234115557936704
20
-155.1458656121039
30
0
10
44.99783331675755
20
-155.15258700392476
30
0
10
44.565456320494178
20
-155.16488659610613
30
0
10
44.173902789747189
20
-155.34613507136876
30
0
10
43.996322589186704
20
-155.42833619601961
30
0
0
LWPOLYLINE
5
155
100
AcDbEntity
8
0
100
AcDbPolyline
90
4
70
1
43
0.0
10
66.61302013900665
20
-155.59654944427248
10
60.531963544158017
20
-155.59654944427248
10
60.531963544158017
20
-154.64440100677248
10
66.61302013900665
20
-154.64440100677248
0
SPLINE
5
156
100
AcDbEntity
8
0
100
AcDbSpline
70
0
71
3
72
9
73
5
74
0
42
0.000000001
43
0.0000000001
44
0.0000000001
40
0
40
0
40
0
40
0
40
0.069317531157450027
40
0.14665745155454207
40
0.14665745155454207
40
0.14665745155454207
40
0.14665745155454207
10
60.531963544158017
20
-157.11998694427248
30
0
10
60.581549220554081
20
-157.37157342329408
30
0
10
60.686459317789634
20
-157.90386346944535
30
0
10
61.233642091273595
20
-157.95585215774528
30
0
10
61.522199349669492
20
-157.98326843269106
30
0
0
LINE
5
157
100
AcDbEntity
8
0
100
AcDbLine
10
74.204816060332334
20
-155.3680335808539
30
0
11
75.391825871733701
21
-155.92662745006319
31
0
0
SPLINE
5
158
100
AcDbEntity
8
0
100
AcDbSpline
70
0
71
3
72
9
73
5
74
0
42
0.000000001
43
0.0000000001
44
0.0000000001
40
0
40
0
40
0
40
0
40
0.14423800723686514
40
0.27323387459687432
40
0.27323387459687432
40
0.27323387459687432
40
0.27323387459687432
10
13.047361848388324
20
-86.91223212748767
30
0
10
13.585611832015303
20
-86.861571393075224
30
0
10
14.605233021641091
20
-86.765603423060867
30
0
10
14.801751524329525
20
-85.774284472654585
30
0
10
14.894529459510455
20
-85.30627497702838
30
0
0
LINE
5
159
100
AcDbEntity
8
0
100
AcDbLine
10
72.808331685332334
20
-152.66393237598177
30
0
11
74.42063732650665
21
-153.29869800098177
31
0
0
SPLINE
5
160
100
AcDbEntity
8
0
100
AcDbSpline
70
0
71
3
72
9
73
5
74
0
42
0.000000001
43
0.0000000001
44
0.0000000001
40
0
40
0
40
0
40
0
40
0.10593171410528432
40
0.19285984984370586
40
0.19285984984370586
40
0.19285984984370586
40
0.19285984984370586
10
73.138407902983701
20
-159.86217432506319
30
0
10
73.487812169893814
20
-159.81103680635377
30
0
10
74.123939462085673
20
-159.71793556407721
30
0
10
74.757250933616632
20
-159.60733702411434
30
0
10
75.042704777983701
20
-159.5574867058539
30
0
0
SPLINE
5
161
100
AcDbEntity
8
0
100
AcDbSpline
70
0
71
3
72
9
73
5
74
0
42
0.000000001
43
0.0000000001
44
0.0000000001
40
0
40
0
40
0
40
0
40
0.070229888174401678
40
0.14439964230888186
40
0.14439964230888186
40
0.14439964230888186
40
0.14439964230888186
10
73.493880467680967
20
-156.62486963756319
30
0
10
73.610783162999269
20
-156.42204388982822
30
0
10
73.85114674363021
20
-156.00501395876475
30
0
10
74.08480124265175
20
-155.58418771215918
30
0
10
74.204816060332334
20
-155.3680335808539
30
0
0
LINE
5
162
100
AcDbEntity
8
0
100
AcDbLine
10
12.139646885429034
20
-83.73840400248767
30
0
11
12.139646885429034
21
-86.91223212748767
31
0
0
SPLINE
5
163
100
AcDbEntity
8
0
100
AcDbSpline
70
0
71
3
72
9
73
5
74
0
42
0.000000001
43
0.0000000001
44
0.0000000001
40
0
40
0
40
0
40
0
40
0.13356738753894487
40
0.29822833286194728
40
0.29822833286194728
40
0.29822833286194728
40
0.29822833286194728
10
46.979719834593809
20
-162.90270143039464
30
0
10
46.583504526652192
20
-163.11870637655664
30
0
10
45.698837745943024
20
-163.60100071629631
30
0
10
44.687831144446207
20
-163.62959172294964
30
0
10
44.129623608855283
20
-163.6453776884818
30
0
0
SPLINE
5
164
100
AcDbEntity
8
0
100
AcDbSpline
70
0
71
3
72
9
73
5
74
0
42
0.000000001
43
0.0000000001
44
0.0000000001
40
0
40
0
40
0
40
0
40
0.077784806394937622
40
0.15396260944223669
40
0.15396260944223669
40
0.15396260944223669
40
0.15396260944223669
10
65.191144185332334
20
-163.4549480009818
30
0
10
65.479447320947187
20
-163.41645086011164
30
0
10
66.050097363376693
20
-163.34025191408165
30
0
10
66.12943127455938
20
-162.77150770865831
30
0
10
66.16868420150665
20
-162.49010377414464
30
0
0
SPLINE
5
165
100
AcDbEntity
8
0
100
AcDbSpline
70
0
71
3
72
9
73
5
74
0
42
0.000000001
43
0.0000000001
44
0.0000000001
40
0
40
0
40
0
40
0
40
0.049756286921176479
40
0.12809689001085239
40
0.12809689001085239
40
0.12809689001085239
40
0.12809689001085239
10
68.428448872832334
20
-157.26915710456606
30
0
10
68.459647785362151
20
-157.10621558888943
30
0
10
68.539968965138314
20
-156.68672485307755
30
0
10
68.588933296106262
20
-156.26234132302932
30
0
10
68.618878560332334
20
-156.00279980190035
30
0
0
LINE
5
166
100
AcDbEntity
8
0
100
AcDbLine
10
75.391825871733701
20
-155.92662745006319
30
0
11
75.347394185332334
21
-155.50768189914461
31
0
0
LINE
5
167
100
AcDbEntity
8
0
100
AcDbLine
10
78.76878185775665
20
-155.17125659473177
30
0
11
80.984114842680967
21
-154.95543652065035
31
0
0
SPLINE
5
168
100
AcDbEntity
8
0
100
AcDbSpline
70
0
71
3
72
9
73
5
74
0
42
0.000000001
43
0.0000000001
44
0.0000000001
40
0
40
0
40
0
40
0
40
0.046129820336604545
40
0.095979112317825729
40
0.095979112317825729
40
0.095979112317825729
40
0.095979112317825729
10
75.296611027983701
20
-164.68639307506322
30
0
10
75.228964388598996
20
-164.54827658149597
30
0
10
75.088216725762834
20
-164.2609071889359
30
0
10
74.932928263122392
20
-163.98112148538985
30
0
10
74.852275090483701
20
-163.8358073759818
30
0
0
SPLINE
5
169
100
AcDbEntity
8
0
100
AcDbSpline
70
0
71
3
72
9
73
5
74
0
42
0.000000001
43
0.0000000001
44
0.0000000001
40
0
40
0
40
0
40
0
40
0.050797116363917601
40
0.10798241733041447
40
0.10798241733041447
40
0.10798241733041447
40
0.10798241733041447
10
72.414778905180967
20
-156.66295521743533
30
0
10
72.584076574801571
20
-156.65949645163525
30
0
10
72.943962586500959
20
-156.65214394978454
30
0
10
73.303484790690334
20
-156.63431270409652
30
0
10
73.493880467680967
20
-156.62486963756319
30
0
0
SPLINE
5
170
100
AcDbEntity
8
0
100
AcDbSpline
70
0
71
3
72
9
73
5
74
0
42
0.000000001
43
0.0000000001
44
0.0000000001
40
0
40
0
40
0
40
0
40
0.10184553538896179
40
0.21893406371825697
40
0.21893406371825697
40
0.21893406371825697
40
0.21893406371825697
10
77.88010998275665
20
-161.8362956572318
30
0
10
77.787968454438328
20
-161.50920128906137
30
0
10
77.589894781842844
20
-160.80605707199368
30
0
10
77.481204643859272
20
-160.08354371715347
30
0
10
77.423075871733701
20
-159.69713502414461
30
0
0
SPLINE
5
171
100
AcDbEntity
8
0
100
AcDbSpline
70
0
71
3
72
9
73
5
74
0
42
0.000000001
43
0.0000000001
44
0.0000000001
40
0
40
0
40
0
40
0
40
0.11825722174769365
40
0.23910283155850523
40
0.23910283155850523
40
0.23910283155850523
40
0.23910283155850523
10
80.044659810332334
20
-152.67662697322604
30
0
10
80.389248202215967
20
-152.86822340641504
30
0
10
81.085967260924775
20
-153.25560989338783
30
0
10
81.760419757364758
20
-153.6805880757031
30
0
10
82.101296620635068
20
-153.89537745006319
30
0
0
SPLINE
5
172
100
AcDbEntity
8
0
100
AcDbSpline
70
0
71
3
72
9
73
5
74
0
42
0.000000001
43
0.0000000001
44
0.0000000001
40
0
40
0
40
0
40
0
40
0.20050149758949418
40
0.41299195798959809
40
0.41299195798959809
40
0.41299195798959809
40
0.41299195798959809
10
19.429930326972613
20
-83.430542435944091
30
0
10
19.961411535047056
20
-82.998341779176528
30
0
10
21.056153805784295
20
-82.108097079616854
30
0
10
22.465689650534557
20
-82.002629622934876
30
0
10
23.190916655097613
20
-81.948365059196959
30
0
0
LINE
5
173
100
AcDbEntity
8
0
100
AcDbLine
10
75.068096356658017
20
-158.4149085808539
30
0
11
77.258037762908017
21
-158.15465443618533
31
0
0
LINE
5
174
100
AcDbEntity
8
0
100
AcDbLine
10
81.377667622832334
20
-159.21471291072604
30
0
11
79.136943059233701
21
-159.48766224868533
31
0
0
SPLINE
5
175
100
AcDbEntity
8
0
100
AcDbSpline
70
0
71
3
72
9
73
5
74
0
42
0.000000001
43
0.0000000001
44
0.0000000001
40
0
40
0
40
0
40
0
40
0.050296452496338198
40
0.10790525868450468
40
0.10790525868450468
40
0.10790525868450468
40
0.10790525868450468
10
68.583964543608701
20
-159.3829261589789
30
0
10
68.419805217359965
20
-159.41898422993444
30
0
10
68.067620248337875
20
-159.49634267732011
30
0
10
67.706944269520875
20
-159.50309889923079
30
0
10
67.514385419158017
20
-159.50670593269106
30
0
0
SPLINE
5
176
100
AcDbEntity
8
0
100
AcDbSpline
70
0
71
3
72
9
73
5
74
0
42
0.000000001
43
0.0000000001
44
0.0000000001
40
0
40
0
40
0
40
0
40
0.095376055457268766
40
0.17585429319067469
40
0.17585429319067469
40
0.17585429319067469
40
0.17585429319067469
10
63.718487458495176
20
-165.07994704730748
30
0
10
63.646464470724951
20
-164.77021521490727
30
0
10
63.513668544671091
20
-164.19913191518134
30
0
10
63.349350357066044
20
-163.63633494669529
30
0
10
63.274151520995176
20
-163.37877564914464
30
0
0
SPLINE
5
177
100
AcDbEntity
8
0
100
AcDbSpline
70
0
71
3
72
9
73
5
74
0
42
0.000000001
43
0.0000000001
44
0.0000000001
40
0
40
0
40
0
40
0
40
0.28594655609328851
40
0.53660785369955633
40
0.53660785369955633
40
0.53660785369955633
40
0.53660785369955633
10
13.428221223388324
20
-82.113403764069091
30
0
10
14.496915082314281
20
-82.205315462477614
30
0
10
16.502428020588873
20
-82.377797131383574
30
0
10
16.907805396043489
20
-84.317621035704093
30
0
10
17.097166059051165
20
-85.223755326569091
30
0
0
SPLINE
5
178
100
AcDbEntity
8
0
100
AcDbSpline
70
0
71
3
72
9
73
5
74
0
42
0.000000001
43
0.0000000001
44
0.0000000001
40
0
40
0
40
0
40
0
40
0.15460234662332234
40
0.33844890261909621
40
0.33844890261909621
40
0.33844890261909621
40
0.33844890261909621
10
35.655501323012388
20
-161.82994776256322
30
0
10
36.209830672309707
20
-161.7012650598931
30
0
10
37.423344982130246
20
-161.4195583429123
30
0
10
37.511767043651957
20
-160.15123167285793
30
0
10
37.559798198012388
20
-159.46227245815035
30
0
0
SPLINE
5
179
100
AcDbEntity
8
0
100
AcDbSpline
70
0
71
3
72
9
73
5
74
0
42
0.000000001
43
0.0000000001
44
0.0000000001
40
0
40
0
40
0
40
0
40
0.11059696739947622
40
0.1918692315267968
40
0.1918692315267968
40
0.1918692315267968
40
0.1918692315267968
10
63.274151520995176
20
-163.37877564914464
30
0
10
63.642203220309014
20
-163.40081789171001
30
0
10
64.280717985857706
20
-163.43905789269371
30
0
10
64.92025016252947
20
-163.45021995673235
30
0
10
65.191144185332334
20
-163.4549480009818
30
0
0
LINE
5
180
100
AcDbEntity
8
0
100
AcDbLine
10
49.63303967025665
20
-163.47399049289464
30
0
11
49.63303967025665
21
-153.64147120006319
31
0
0
LINE
5
181
100
AcDbEntity
8
0
100
AcDbLine
10
10.044920546446452
20
-91.945923056900511
30
0
11
10.044920546446452
21
-82.113403764069091
31
0
0
LINE
5
182
100
AcDbEntity
8
0
100
AcDbLine
10
12.139646885429034
20
-88.518188681900511
30
0
11
12.139646885429034
21
-91.945923056900511
31
0
0
SPLINE
5
183
100
AcDbEntity
8
0
100
AcDbSpline
70
0
71
3
72
9
73
5
74
0
42
0.000000001
43
0.0000000001
44
0.0000000001
40
0
40
0
40
0
40
0
40
0.11869571358963467
40
0.24408445486912528
40
0.24408445486912528
40
0.24408445486912528
40
0.24408445486912528
10
47.551008897093809
20
-155.81871741302248
30
0
10
47.201153244048456
20
-155.62251015247836
30
0
10
46.481714236742022
20
-155.21903187358404
30
0
10
45.657515224240051
20
-155.17069616957534
30
0
10
45.234115557936704
20
-155.1458656121039
30
0
0
SPLINE
5
184
100
AcDbEntity
8
0
100
AcDbSpline
70
0
71
3
72
9
73
5
74
0
42
0.000000001
43
0.0000000001
44
0.0000000001
40
0
40
0
40
0
40
0
40
0.15354065326029803
40
0.33287925014900621
40
0.33287925014900621
40
0.33287925014900621
40
0.33287925014900621
10
81.149148183135068
20
-165.18150978572606
30
0
10
80.624112456053695
20
-165.0846101875843
30
0
10
79.485824351756094
20
-164.87452989364115
30
0
10
78.858950442347592
20
-163.8900964057018
30
0
10
78.521222310332334
20
-163.3597331572318
30
0
0
SPLINE
5
185
100
AcDbEntity
8
0
100
AcDbSpline
70
0
71
3
72
9
73
5
74
0
42
0.000000001
43
0.0000000001
44
0.0000000001
40
0
40
0
40
0
40
0
40
0.096320664143080173
40
0.18530966106512797
40
0.18530966106512797
40
0.18530966106512797
40
0.18530966106512797
10
32.280758497748977
20
-86.67102107077838
30
0
10
32.602439965275195
20
-86.730036119439831
30
0
10
33.221317381129232
20
-86.843574151621041
30
0
10
33.707295986341698
20
-87.241600087331932
30
0
10
33.940671560798293
20
-87.432739224731932
30
0
0
SPLINE
5
186
100
AcDbEntity
8
0
100
AcDbSpline
70
0
71
3
72
9
73
5
74
0
42
0.000000001
43
0.0000000001
44
0.0000000001
40
0
40
0
40
0
40
0
40
0.11499116090332667
40
0.23553202632622078
40
0.23553202632622078
40
0.23553202632622078
40
0.23553202632622078
10
25.603026030097613
20
-84.347778644859801
30
0
10
25.254979457974684
20
-84.177476373389055
30
0
10
24.54208888669914
20
-83.828652700574864
30
0
10
23.749097212906083
20
-83.785750783897043
30
0
10
23.343258974586139
20
-83.763794389069091
30
0
0
SPLINE
5
187
100
AcDbEntity
8
0
100
AcDbSpline
70
0
71
3
72
9
73
5
74
0
42
0.000000001
43
0.0000000001
44
0.0000000001
40
0
40
0
40
0
40
0
40
0.14300115677626166
40
0.25785704393160325
40
0.25785704393160325
40
0.25785704393160325
40
0.25785704393160325
10
30.833493349586139
20
-82.113403764069091
30
0
10
31.317613845723756
20
-82.125671393238122
30
0
10
32.190570980161922
20
-82.147792155509478
30
0
10
32.964397755625043
20
-82.545590021628499
30
0
10
33.309079287086135
20
-82.72277900248767
30
0
0
SPLINE
5
188
100
AcDbEntity
8
0
100
AcDbSpline
70
0
71
3
72
9
73
5
74
0
42
0.000000001
43
0.0000000001
44
0.0000000001
40
0
40
0
40
0
40
0
40
0.076263386448548062
40
0.15301922004315316
40
0.15301922004315316
40
0.15301922004315316
40
0.15301922004315316
10
34.178708670173293
20
-84.411255207359801
30
0
10
34.155939382689326
20
-84.669978834507802
30
0
10
34.110253782114974
20
-85.189096716319
30
0
10
33.796526399614315
20
-85.605310736178168
30
0
10
33.639157888923293
20
-85.81408747702838
30
0
0
SPLINE
5
189
100
AcDbEntity
8
0
100
AcDbSpline
70
0
71
3
72
9
73
5
74
0
42
0.000000001
43
0.0000000001
44
0.0000000001
40
0
40
0
40
0
40
0
40
0.047984999509470161
40
0.092293542560342418
40
0.092293542560342418
40
0.092293542560342418
40
0.092293542560342418
10
43.996322589186704
20
-155.42833619601961
30
0
10
43.861234168152158
20
-155.52716351940074
30
0
10
43.60140736678477
20
-155.71724633423545
30
0
10
43.555150225802763
20
-156.03454929997918
30
0
10
43.532942967680967
20
-156.18688099868533
30
0
0
SPLINE
5
190
100
AcDbEntity
8
0
100
AcDbSpline
70
0
71
3
72
9
73
5
74
0
42
0.000000001
43
0.0000000001
44
0.0000000001
40
0
40
0
40
0
40
0
40
0.20199187253005849
40
0.3849441797554245
40
0.3849441797554245
40
0.3849441797554245
40
0.3849441797554245
10
22.803709385429034
20
-92.11731025248767
30
0
10
22.113436358880314
20
-92.073718203878414
30
0
10
20.797954796756812
20
-91.990643052459859
30
0
10
19.767384476602281
20
-91.175085560763563
30
0
10
19.277585623298297
20
-90.787475791275511
30
0
0
SPLINE
5
191
100
AcDbEntity
8
0
100
AcDbSpline
70
0
71
3
72
9
73
5
74
0
42
0.000000001
43
0.0000000001
44
0.0000000001
40
0
40
0
40
0
40
0
40
0.074249559442868845
40
0.15942333129043113
40
0.15942333129043113
40
0.15942333129043113
40
0.15942333129043113
10
72.567118840483701
20
-158.11022096164461
30
0
10
72.320559688616584
20
-158.13181251662405
30
0
10
71.791165552870297
20
-158.17817235563712
30
0
10
71.262598097983684
20
-158.2331773918705
30
0
10
70.980204777983701
20
-158.26256447322604
30
0
0
LINE
5
192
100
AcDbEntity
8
0
100
AcDbLine
10
82.888411717680967
20
-157.48815052993533
30
0
11
83.053445058135068
21
-159.01158802993533
31
0
0
SPLINE
5
193
100
AcDbEntity
8
0
100
AcDbSpline
70
0
71
3
72
9
73
5
74
0
42
0.000000001
43
0.0000000001
44
0.0000000001
40
0
40
0
40
0
40
0
40
0.056330685212670428
40
0.109367859162619
40
0.109367859162619
40
0.109367859162619
40
0.109367859162619
10
54.660383897093809
20
-160.52233033664464
30
0
10
54.644203891988909
20
-160.32846026848674
30
0
10
54.612789885344341
20
-159.95205521979818
30
0
10
54.345613343904802
20
-159.68634231154644
30
0
10
54.216047959593809
20
-159.5574867058539
30
0
0
LINE
5
194
100
AcDbEntity
8
0
100
AcDbLine
10
76.985091405180967
20
-152.70201855190035
30
0
11
78.698953824309385
21
-152.70201855190035
31
0
0
LINE
5
195
100
AcDbEntity
8
0
100
AcDbLine
10
51.72776623275665
20
-161.91246681697606
30
0
11
52.971905904082334
21
-161.91246681697606
31
0
0
SPLINE
5
196
100
AcDbEntity
8
0
100
AcDbSpline
70
0
71
3
72
9
73
5
74
0
42
0.000000001
43
0.0000000001
44
0.0000000001
40
0
40
0
40
0
40
0
40
0.069898139015669339
40
0.14724815408498793
40
0.14724815408498793
40
0.14724815408498793
40
0.14724815408498793
10
67.466777997283017
20
-164.43566017635106
30
0
10
67.285311942190603
20
-164.58958551777755
30
0
10
66.903033643830582
20
-164.91384625935282
30
0
10
66.404942037180945
20
-164.98112743007425
30
0
10
66.143292622832334
20
-165.01647048480748
30
0
0
SPLINE
5
197
100
AcDbEntity
8
0
100
AcDbSpline
70
0
71
3
72
9
73
5
74
0
42
0.000000001
43
0.0000000001
44
0.0000000001
40
0
40
0
40
0
40
0
40
0.21653587813324837
40
0.40744783364037107
40
0.40744783364037107
40
0.40744783364037107
40
0.40744783364037107
10
74.852275090483701
20
-163.8358073759818
30
0
10
74.139528936646784
20
-163.9500706203379
30
0
10
72.798379937137071
20
-164.16507568914676
30
0
10
71.465218484062376
20
-164.42496947668781
30
0
10
70.840558247832334
20
-164.54674416072606
30
0
0
SPLINE
5
198
100
AcDbEntity
8
0
100
AcDbSpline
70
0
71
3
72
9
73
5
74
0
42
0.000000001
43
0.0000000001
44
0.0000000001
40
0
40
0
40
0
40
0
40
0.073055485927553912
40
0.14430015472975355
40
0.14430015472975355
40
0.14430015472975355
40
0.14430015472975355
10
79.136943059233701
20
-159.48766224868533
30
0
10
79.178392843626696
20
-159.72766675085199
30
0
10
79.260265001829225
20
-160.20172679382847
30
0
10
79.364685716400203
20
-160.67133309621801
30
0
10
79.416240887908017
20
-160.90318971164464
30
0
0
LINE
5
199
100
AcDbEntity
8
0
100
AcDbLine
10
31.618392156628651
20
-159.36070971973177
30
0
11
31.618392156628644
21
-153.64147179610964
31
0
0
LINE
5
200
100
AcDbEntity
8
0
100
AcDbLine
10
13.066404936347613
20
-83.73840400248767
30
0
11
12.139646885429034
21
-83.73840400248767
31
0
0
SPLINE
5
201
100
AcDbEntity
8
0
100
AcDbSpline
70
0
71
3
72
9
73
5
74
0
42
0.000000001
43
0.0000000001
44
0.0000000001
40
0
40
0
40
0
40
0
40
0.076263386448548062
40
0.15301922004315316
40
0.15301922004315316
40
0.15301922004315316
40
0.15301922004315316
10
56.469465928343809
20
-155.9393226433539
30
0
10
56.446696640859827
20
-156.19804627050192
30
0
10
56.401011040285489
20
-156.7171641523131
30
0
10
56.087283657784823
20
-157.13337817217229
30
0
10
55.929915147093809
20
-157.34215491302248
30
0
0
SPLINE
5
202
100
AcDbEntity
8
0
100
AcDbSpline
70
0
71
3
72
9
73
5
74
0
42
0.000000001
43
0.0000000001
44
0.0000000001
40
0
40
0
40
0
40
0
40
0.066728753503389401
40
0.17961782684297747
40
0.17961782684297747
40
0.17961782684297747
40
0.17961782684297747
10
43.850325780180967
20
-156.88829713351961
30
0
10
44.030744671334254
20
-157.01934628506064
30
0
10
44.5163891266698
20
-157.37209922249139
30
0
10
45.070156690240324
20
-157.60707269675854
30
0
10
45.418197350768125
20
-157.75475256927248
30
0
0
SPLINE
5
203
100
AcDbEntity
8
0
100
AcDbSpline
70
0
71
3
72
9
73
5
74
0
42
0.000000001
43
0.0000000001
44
0.0000000001
40
0
40
0
40
0
40
0
40
0.041496310745391292
40
0.085789309719649251
40
0.085789309719649251
40
0.085789309719649251
40
0.085789309719649251
10
75.195049481658017
20
-162.09654860980748
30
0
10
75.185497325294378
20
-162.23456150469923
30
0
10
75.165749234776257
20
-162.51988882109168
30
0
10
75.159955698929167
20
-162.80584374727829
30
0
10
75.156964497832334
20
-162.95348220355748
30
0
0
LINE
5
204
100
AcDbEntity
8
0
100
AcDbLine
10
68.39036388900665
20
-153.13365870006319
30
0
11
68.39036388900665
21
-156.99303381927248
31
0
0
LINE
5
205
100
AcDbEntity
8
0
100
AcDbLine
10
78.851298527983701
20
-156.71373658664461
30
0
11
78.946513371733701
21
-157.95787745006319
31
0
0
SPLINE
5
206
100
AcDbEntity
8
0
100
AcDbSpline
70
0
71
3
72
9
73
5
74
0
42
0.000000001
43
0.0000000001
44
0.0000000001
40
0
40
0
40
0
40
0
40
0.2115980686686289
40
0.39172312074607119
40
0.39172312074607119
40
0.39172312074607119
40
0.39172312074607119
10
74.42063732650665
20
-153.29869800098177
30
0
10
74.071876902550088
20
-153.91187560605556
30
0
10
73.426230548003574
20
-155.04702701146491
30
0
10
72.733373575052298
20
-156.15395795892061
30
0
10
72.414778905180967
20
-156.66295521743533
30
0
0
LINE
5
207
100
AcDbEntity
8
0
100
AcDbLine
10
53.308333592680953
20
-163.47399049289464
30
0
11
49.63303967025665
21
-163.47399049289464
31
0
0
SPLINE
5
208
100
AcDbEntity
8
0
100
AcDbSpline
70
0
71
3
72
9
73
5
74
0
42
0.000000001
43
0.0000000001
44
0.0000000001
40
0
40
0
40
0
40
0
40
0.05835359341078053
40
0.16642960061682602
40
0.16642960061682602
40
0.16642960061682602
40
0.16642960061682602
10
81.326884465483701
20
-162.9630046416068
30
0
10
81.387018102468261
20
-162.77784675720099
30
0
10
81.558524544522712
20
-162.24976012274496
30
0
10
81.656690357580743
20
-161.70274571274817
30
0
10
81.720437245635068
20
-161.34752564914464
30
0
0
LINE
5
209
100
AcDbEntity
8
0
100
AcDbLine
10
37.559798198012388
20
-159.46227245815041
30
0
11
37.559798198012388
21
-153.64147179610964
31
0
0
SPLINE
5
210
100
AcDbEntity
8
0
100
AcDbSpline
70
0
71
3
72
9
73
5
74
0
42
0.000000001
43
0.0000000001
44
0.0000000001
40
0
40
0
40
0
40
0
40
0.13219758969882495
40
0.25156409748577679
40
0.25156409748577679
40
0.25156409748577679
40
0.25156409748577679
10
20.175779936347613
20
-87.089966025650511
30
0
10
20.202376629745178
20
-87.540412537311028
30
0
10
20.252988544727195
20
-88.397585277219861
30
0
10
20.755965907900027
20
-89.090682385120232
30
0
10
20.994627354179034
20
-89.419555154144774
30
0
0
SPLINE
5
211
100
AcDbEntity
8
0
100
AcDbSpline
70
0
71
3
72
9
73
5
74
0
42
0.000000001
43
0.0000000001
44
0.0000000001
40
0
40
0
40
0
40
0
40
0.14169019960499513
40
0.29540886222501528
40
0.29540886222501528
40
0.29540886222501528
40
0.29540886222501528
10
15.989500162635455
20
-87.645385947525511
30
0
10
15.586658831099349
20
-87.909110441234787
30
0
10
14.746777881407329
20
-88.458947711876803
30
0
10
13.741732936751134
20
-88.497912831099541
30
0
10
13.218748745952258
20
-88.518188681900511
30
0
0
LINE
5
212
100
AcDbEntity
8
0
100
AcDbLine
10
82.697982030180967
20
-156.3201820183539
30
0
11
78.851298527983701
21
-156.71373658664461
31
0
0
LINE
5
213
100
AcDbEntity
8
0
100
AcDbLine
10
83.053445058135068
20
-159.01158802993533
30
0
11
81.523665623930967
21
-159.19567041881319
31
0
0
SPLINE
5
214
100
AcDbEntity
8
0
100
AcDbSpline
70
0
71
3
72
9
73
5
74
0
42
0.000000001
43
0.0000000001
44
0.0000000001
40
0
40
0
40
0
40
0
40
0.13283769116523647
40
0.24572621115941209
40
0.24572621115941209
40
0.24572621115941209
40
0.24572621115941209
10
45.132552819518125
20
-153.47643249519106
30
0
10
45.577710224707658
20
-153.48629793829605
30
0
10
46.401172613938058
20
-153.50454726146876
30
0
10
47.189051328246862
20
-153.74190157156272
30
0
10
47.551008897093809
20
-153.85094397552248
30
0
0
SPLINE
5
215
100
AcDbEntity
8
0
100
AcDbSpline
70
0
71
3
72
9
73
5
74
0
42
0.000000001
43
0.0000000001
44
0.0000000001
40
0
40
0
40
0
40
0
40
0.051447861060660662
40
0.10715962030383583
40
0.10715962030383583
40
0.10715962030383583
40
0.10715962030383583
10
53.85423107650665
20
-157.29137354381319
30
0
10
53.974519705427824
20
-157.16193734478611
30
0
10
54.225066249760602
20
-156.89233752750772
30
0
10
54.252543464193543
20
-156.52424612194773
30
0
10
54.26682873275665
20
-156.33287721164461
30
0
0
SPLINE
5
216
100
AcDbEntity
8
0
100
AcDbSpline
70
0
71
3
72
9
73
5
74
0
42
0.000000001
43
0.0000000001
44
0.0000000001
40
0
40
0
40
0
40
0
40
0.033188137016224764
40
0.066646199485285385
40
0.066646199485285385
40
0.066646199485285385
40
0.066646199485285385
10
68.047589497832334
20
-157.79918604381319
30
0
10
68.138098083034677
20
-157.73084927281408
30
0
10
68.319851377037821
20
-157.59361993481411
30
0
10
68.392152098575778
20
-157.37760301317562
30
0
10
68.428448872832334
20
-157.26915710456606
30
0
0
LINE
5
217
100
AcDbEntity
8
0
100
AcDbLine
10
82.101296620635054
20
-153.89537745006319
30
0
11
81.326884465483701
21
-154.91735034473177
31
0
0
LINE
5
218
100
AcDbEntity
8
0
100
AcDbLine
10
66.16868420150665
20
-159.78600197322604
30
0
11
67.94602795150665
21
-159.78600197322604
31
0
0
LINE
5
219
100
AcDbEntity
8
0
100
AcDbLine
10
10.044920546446452
20
-82.113403764069091
30
0
11
13.428221223388324
21
-82.113403764069091
31
0
0
SPLINE
5
220
100
AcDbEntity
8
0
100
AcDbSpline
70
0
71
3
72
9
73
5
74
0
42
0.000000001
43
0.0000000001
44
0.0000000001
40
0
40
0
40
0
40
0
40
0.059623559889508744
40
0.13265001762059381
40
0.13265001762059381
40
0.13265001762059381
40
0.13265001762059381
10
54.216047959593809
20
-159.5574867058539
30
0
10
54.040782825167298
20
-159.45777593937461
30
0
10
53.650854360428951
20
-159.23594022619423
30
0
10
53.2006885773596
20
-159.22224977488676
30
0
10
52.952863412169492
20
-159.21471291072604
30
0
0
SPLINE
5
221
100
AcDbEntity
8
0
100
AcDbSpline
70
0
71
3
72
9
73
5
74
0
42
0.000000001
43
0.0000000001
44
0.0000000001
40
0
40
0
40
0
40
0
40
0.075422811360483275
40
0.13359598750209556
40
0.13359598750209556
40
0.13359598750209556
40
0.13359598750209556
10
44.059799151686704
20
-161.98229127414464
30
0
10
44.315001275338339
20
-161.97775700273311
30
0
10
44.76703931405477
20
-161.96972547412918
30
0
10
45.172025351182754
20
-161.77285220053528
30
0
10
45.348372893599546
20
-161.68712549693822
30
0
0
LINE
5
222
100
AcDbEntity
8
0
100
AcDbLine
10
68.39036388900665
20
-156.99303381927248
30
0
11
60.531963544158017
21
-156.99303381927248
31
0
0
LINE
5
223
100
AcDbEntity
8
0
100
AcDbLine
10
81.523665623930967
20
-159.19567041881319
30
0
11
82.647198872832334
21
-160.09068899638891
31
0
0
SPLINE
5
224
100
AcDbEntity
8
0
100
AcDbSpline
70
0
71
3
72
9
73
5
74
0
42
0.000000001
43
0.0000000001
44
0.0000000001
40
0
40
0
40
0
40
0
40
0.14300139383803581
40
0.25785706226313482
40
0.25785706226313482
40
0.25785706226313482
40
0.25785706226313482
10
53.12425060775665
20
-153.64147120006319
30
0
10
53.608371977539321
20
-153.65373858077311
30
0
10
54.481329302223536
20
-153.67585885993
30
0
10
55.255155812726635
20
-154.07365747434648
30
0
10
55.59983654525665
20
-154.25084643848177
30
0
0
LINE
5
225
100
AcDbEntity
8
0
100
AcDbLine
10
52.61643810775665
20
-155.2029948759818
30
0
11
51.72776623275665
21
-155.20299487598177
31
0
0
SPLINE
5
226
100
AcDbEntity
8
0
100
AcDbSpline
70
0
71
3
72
9
73
5
74
0
42
0.000000001
43
0.0000000001
44
0.0000000001
40
0
40
0
40
0
40
0
40
0.12989887893855767
40
0.25910118447903518
40
0.25910118447903518
40
0.25910118447903518
40
0.25910118447903518
10
79.416240887908017
20
-160.90318971164464
30
0
10
79.764167535636389
20
-160.64441389239499
30
0
10
80.458155099461948
20
-160.12824992061937
30
0
10
81.071713282873077
20
-159.51867898599579
30
0
10
81.377667622832334
20
-159.21471291072604
30
0
0
SPLINE
5
227
100
AcDbEntity
8
0
100
AcDbSpline
70
0
71
3
72
9
73
5
74
0
42
0.000000001
43
0.0000000001
44
0.0000000001
40
0
40
0
40
0
40
0
40
0.066004144319068189
40
0.15921367638507616
40
0.15921367638507616
40
0.15921367638507616
40
0.15921367638507616
10
75.042704777983701
20
-159.5574867058539
30
0
10
75.020265812973207
20
-159.77637521740175
30
0
10
74.966139058502648
20
-160.30437304240991
30
0
10
74.934357654069174
20
-160.83421262584153
30
0
10
74.915751652983701
20
-161.14440017230748
30
0
0
SPLINE
5
228
100
AcDbEntity
8
0
100
AcDbSpline
70
0
71
3
72
9
73
5
74
0
42
0.000000001
43
0.0000000001
44
0.0000000001
40
0
40
0
40
0
40
0
40
0.042134425356724639
40
0.08075108228302047
40
0.08075108228302047
40
0.08075108228302047
40
0.08075108228302047
10
69.751934247283017
20
-158.33238952644106
30
0
10
69.700615133237534
20
-158.4648653107929
30
0
10
69.602261495662191
20
-158.71875658549607
30
0
10
69.413660111088276
20
-158.91470738986706
30
0
10
69.323467450408017
20
-159.00841467864748
30
0
0
LINE
5
229
100
AcDbEntity
8
0
100
AcDbLine
10
77.258037762908017
20
-158.15465443618533
30
0
11
77.18186779525665
21
-156.88512318618533
31
0
0
SPLINE
5
230
100
AcDbEntity
8
0
100
AcDbSpline
70
0
71
3
72
9
73
5
74
0
42
0.000000001
43
0.0000000001
44
0.0000000001
40
0
40
0
40
0
40
0
40
0.046745950138044556
40
0.090238528608022936
40
0.090238528608022936
40
0.090238528608022936
40
0.090238528608022936
10
45.348372893599546
20
-161.68712549693822
30
0
10
45.474219628401862
20
-161.58470174404314
30
0
10
45.717154559559539
20
-161.38698261054662
30
0
10
45.759570753077767
20
-161.07766364111717
30
0
10
45.780014233855283
20
-160.92858009822606
30
0
0
SPLINE
5
231
100
AcDbEntity
8
0
100
AcDbSpline
70
0
71
3
72
9
73
5
74
0
42
0.000000001
43
0.0000000001
44
0.0000000001
40
0
40
0
40
0
40
0
40
0.13167691453525229
40
0.25382291768029436
40
0.25382291768029436
40
0.25382291768029436
40
0.25382291768029436
10
23.343258974586139
20
-83.763794389069091
30
0
10
22.89291608352622
20
-83.796047569442607
30
0
10
22.024826586070656
20
-83.858219411604651
30
0
10
21.359319204712879
20
-84.415855814474625
30
0
10
21.039060232673297
20
-84.684204545319091
30
0
0
LINE
5
232
100
AcDbEntity
8
0
100
AcDbLine
10
70.205792622832334
20
-160.34459524638891
30
0
11
70.205792622832334
21
-161.91881471164464
31
0
0
LINE
5
233
100
AcDbEntity
8
0
100
AcDbLine
10
12.139646885429034
20
-86.91223212748767
30
0
11
13.047361848388324
21
-86.91223212748767
31
0
0
LINE
5
234
100
AcDbEntity
8
0
100
AcDbLine
10
47.551008897093809
20
-153.85094397552248
30
0
11
47.551008897093809
21
-155.81871741302248
31
0
0
SPLINE
5
235
100
AcDbEntity
8
0
100
AcDbSpline
70
0
71
3
72
9
73
5
74
0
42
0.000000001
43
0.0000000001
44
0.0000000001
40
0
40
0
40
0
40
0
40
0.14670385300030908
40
0.2917850989550923
40
0.2917850989550923
40
0.2917850989550923
40
0.2917850989550923
10
41.362045245436704
20
-160.99840455539464
30
0
10
41.769789688794631
20
-161.28536896534706
30
0
10
42.580768748447078
20
-161.85612383675718
30
0
10
43.568620153333612
20
-161.94039166519474
30
0
10
44.059799151686704
20
-161.98229127414464
30
0
0
SPLINE
5
236
100
AcDbEntity
8
0
100
AcDbSpline
70
0
71
3
72
9
73
5
74
0
42
0.000000001
43
0.0000000001
44
0.0000000001
40
0
40
0
40
0
40
0
40
0.080125553609779909
40
0.13019027803733563
40
0.13019027803733563
40
0.13019027803733563
40
0.13019027803733563
10
79.993876652983701
20
-162.4393230009818
30
0
10
80.138393591647755
20
-162.67705251474069
30
0
10
80.373208823220509
20
-163.06332218901574
30
0
10
80.791516264549699
20
-163.21322126525621
30
0
10
80.952376561430967
20
-163.27086501605748
30
0
0
SPLINE
5
237
100
AcDbEntity
8
0
100
AcDbSpline
70
0
71
3
72
9
73
5
74
0
42
0.000000001
43
0.0000000001
44
0.0000000001
40
0
40
0
40
0
40
0
40
0.13886690685960926
40
0.27360928782721444
40
0.27360928782721444
40
0.27360928782721444
40
0.27360928782721444
10
17.097166059051165
20
-85.223755326569091
30
0
10
17.053860048012304
20
-85.699972060489841
30
0
10
16.968534270208693
20
-86.638261278317572
30
0
10
16.312548644578104
20
-87.313068520586157
30
0
10
15.989500162635455
20
-87.645385947525511
30
0
0
SPLINE
5
238
100
AcDbEntity
8
0
100
AcDbSpline
70
0
71
3
72
9
73
5
74
0
42
0.000000001
43
0.0000000001
44
0.0000000001
40
0
40
0
40
0
40
0
40
0.046250040326004334
40
0.084088168341915848
40
0.084088168341915848
40
0.084088168341915848
40
0.084088168341915848
10
67.235089974669492
20
-157.98326843269106
30
0
10
67.391204262426527
20
-157.97917915979843
30
0
10
67.675038923260558
20
-157.971744366986
30
0
10
67.93197361549899
20
-157.85273711620255
30
0
10
68.047589497832334
20
-157.79918604381319
30
0
0
SPLINE
5
239
100
AcDbEntity
8
0
100
AcDbSpline
70
0
71
3
72
9
73
5
74
0
42
0.000000001
43
0.0000000001
44
0.0000000001
40
0
40
0
40
0
40
0
40
0.037429047849707534
40
0.078576451478868187
40
0.078576451478868187
40
0.078576451478868187
40
0.078576451478868187
10
43.532942967680967
20
-156.18688099868533
30
0
10
43.548500770910763
20
-156.31361043687511
30
0
10
43.581161953624068
20
-156.57965913762877
30
0
10
43.75781796205473
20
-156.78222259907736
30
0
10
43.850325780180967
20
-156.88829713351961
30
0
0
LINE
5
240
100
AcDbEntity
8
0
100
AcDbLine
10
49.63303967025665
20
-153.64147120006319
30
0
11
53.12425060775665
21
-153.64147120006319
31
0
0
LINE
5
241
100
AcDbEntity
8
0
100
AcDbLine
10
75.512432294158017
20
-157.05650978572604
30
0
11
75.43626232650665
21
-156.37731068618533
31
0
0
LINE
5
242
100
AcDbEntity
8
0
100
AcDbLine
10
37.559798198012388
20
-153.64147179610964
30
0
11
39.654524760512388
21
-153.64147179610964
31
0
0
LINE
5
243
100
AcDbEntity
8
0
100
AcDbLine
10
79.219464497832334
20
-153.76842432506319
30
0
11
80.044659810332334
21
-152.67662697322604
31
0
0
SPLINE
5
244
100
AcDbEntity
8
0
100
AcDbSpline
70
0
71
3
72
9
73
5
74
0
42
0.000000001
43
0.0000000001
44
0.0000000001
40
0
40
0
40
0
40
0
40
0.071293702052175917
40
0.13141002993014156
40
0.13141002993014156
40
0.13141002993014156
40
0.13141002993014156
10
52.971905904082334
20
-161.91246681697606
30
0
10
53.214225677947979
20
-161.90307330969199
30
0
10
53.660874509748666
20
-161.88575900228727
30
0
10
54.039612717392828
20
-161.65147943055081
30
0
10
54.212874608305967
20
-161.54430323131322
30
0
0
LINE
5
245
100
AcDbEntity
8
0
100
AcDbLine
10
66.168684201506636
20
-162.49010377414464
30
0
11
66.16868420150665
21
-161.91881471164464
31
0
0
LINE
5
246
100
AcDbEntity
8
0
100
AcDbLine
10
52.952863412169492
20
-159.21471291072601
30
0
11
51.72776623275665
21
-159.21471291072604
31
0
0
LINE
5
247
100
AcDbEntity
8
0
100
AcDbLine
10
57.573956685332334
20
-160.34459524638891
30
0
11
66.16868420150665
21
-160.34459524638891
31
0
0
SPLINE
5
248
100
AcDbEntity
8
0
100
AcDbSpline
70
0
71
3
72
9
73
5
74
0
42
0.000000001
43
0.0000000001
44
0.0000000001
40
0
40
0
40
0
40
0
40
0.022167210336860671
40
0.050641206680660314
40
0.050641206680660314
40
0.050641206680660314
40
0.050641206680660314
10
80.952376561430967
20
-163.27086501605748
30
0
10
81.027372884861265
20
-163.25270893447913
30
0
10
81.19870271199828
20
-163.21123119029096
30
0
10
81.2807511479852
20
-163.05234274059998
30
0
10
81.326884465483701
20
-162.9630046416068
30
0
0
LINE
5
249
100
AcDbEntity
8
0
100
AcDbLine
10
78.946513371733701
20
-157.95787745006319
30
0
11
82.888411717680967
21
-157.48815052993533
31
0
0
SPLINE
5
250
100
AcDbEntity
8
0
100
AcDbSpline
70
0
71
3
72
9
73
5
74
0
42
0.000000001
43
0.0000000001
44
0.0000000001
40
0
40
0
40
0
40
0
40
0.064681632955997062
40
0.11990699108391015
40
0.11990699108391015
40
0.11990699108391015
40
0.11990699108391015
10
52.724348740843809
20
-157.63414674289461
30
0
10
52.94422609947928
20
-157.62494865539884
30
0
10
53.35183535850021
20
-157.60789721521488
30
0
10
53.695808126242461
20
-157.39118453354632
30
0
10
53.85423107650665
20
-157.29137354381319
30
0
0
SPLINE
5
251
100
AcDbEntity
8
0
100
AcDbSpline
70
0
71
3
72
9
73
5
74
0
42
0.000000001
43
0.0000000001
44
0.0000000001
40
0
40
0
40
0
40
0
40
0.069755734106916961
40
0.16262749853523428
40
0.16262749853523428
40
0.16262749853523428
40
0.16262749853523428
10
68.618878560332334
20
-156.00279980190035
30
0
10
68.838407534073582
20
-156.07953734118379
30
0
10
69.350214173522446
20
-156.25844211822024
30
0
10
69.870555859907512
20
-156.4108696487873
30
0
10
70.16770763900665
20
-156.49791651256319
30
0
0
LINE
5
252
100
AcDbEntity
8
0
100
AcDbLine
10
51.72776623275665
20
-157.63414674289461
30
0
11
52.724348740843809
21
-157.63414674289461
31
0
0
LINE
5
253
100
AcDbEntity
8
0
100
AcDbLine
10
58.754619794158017
20
-157.29772143848177
30
0
11
58.754619794158017
21
-153.13365870006319
31
0
0
SPLINE
5
254
100
AcDbEntity
8
0
100
AcDbSpline
70
0
71
3
72
9
73
5
74
0
42
0.000000001
43
0.0000000001
44
0.0000000001
40
0
40
0
40
0
40
0
40
0.13954640878351957
40
0.24295567028341747
40
0.24295567028341747
40
0.24295567028341747
40
0.24295567028341747
10
45.418197350768125
20
-157.75475256927248
30
0
10
45.848393819956911
20
-157.94392760615582
30
0
10
46.597382435546884
20
-158.27328862868259
30
0
10
47.183927106392154
20
-158.84014241692233
30
0
10
47.433578210143125
20
-159.0814124871039
30
0
0
SPLINE
5
255
100
AcDbEntity
8
0
100
AcDbSpline
70
0
71
3
72
9
73
5
74
0
42
0.000000001
43
0.0000000001
44
0.0000000001
40
0
40
0
40
0
40
0
40
0.18339524577720048
40
0.38544018490216436
40
0.38544018490216436
40
0.38544018490216436
40
0.38544018490216436
10
19.277585623298297
20
-90.787475791275511
30
0
10
18.897365861984383
20
-90.290921328508134
30
0
10
18.0982613133183
20
-89.247317154735981
30
0
10
18.016172893085951
20
-87.931861707075456
30
0
10
17.973142740760455
20
-87.242309537231932
30
0
0
LINE
5
256
100
AcDbEntity
8
0
100
AcDbLine
10
39.654524760512388
20
-153.64147179610964
30
0
11
39.654524760512388
21
-159.24645178802248
31
0
0
SPLINE
5
257
100
AcDbEntity
8
0
100
AcDbSpline
70
0
71
3
72
9
73
5
74
0
42
0.000000001
43
0.0000000001
44
0.0000000001
40
0
40
0
40
0
40
0
40
0.12524851018040795
40
0.25864735552225171
40
0.25864735552225171
40
0.25864735552225171
40
0.25864735552225171
10
61.687237458495176
20
-164.0897136259818
30
0
10
61.388108792674103
20
-163.79843494763742
30
0
10
60.770386168556065
20
-163.19692312314316
30
0
10
60.135683615456379
20
-162.61335068271995
30
0
10
59.808332162169492
20
-162.3123698759818
30
0
0
LINE
5
258
100
AcDbEntity
8
0
100
AcDbLine
10
51.72776623275665
20
-159.21471291072604
30
0
11
51.72776623275665
21
-161.91246681697606
31
0
0
SPLINE
5
259
100
AcDbEntity
8
0
100
AcDbSpline
70
0
71
3
72
9
73
5
74
0
42
0.000000001
43
0.0000000001
44
0.0000000001
40
0
40
0
40
0
40
0
40
0.079424666285802276
40
0.16096063409126143
40
0.16096063409126143
40
0.16096063409126143
40
0.16096063409126143
10
55.929915147093809
20
-157.34215491302248
30
0
10
55.736679163929317
20
-157.52804091128729
30
0
10
55.345070513444306
20
-157.90475421143162
30
0
10
54.831612331755899
20
-158.08326923312799
30
0
10
54.571515755919492
20
-158.17369752414461
30
0
0
LINE
5
260
100
AcDbEntity
8
0
100
AcDbLine
10
71.259502606658003
20
-161.75377541072606
30
0
11
70.789775090483701
21
-160.33190064914464
31
0
0
LINE
5
261
100
AcDbEntity
8
0
100
AcDbLine
10
70.840558247832334
20
-164.54674416072606
30
0
11
70.510479645995176
21
-162.76940041072606
31
0
0
SPLINE
5
262
100
AcDbEntity
8
0
100
AcDbSpline
70
0
71
3
72
9
73
5
74
0
42
0.000000001
43
0.0000000001
44
0.0000000001
40
0
40
0
40
0
40
0
40
0.039413649196448741
40
0.083432957395668139
40
0.083432957395668139
40
0.083432957395668139
40
0.083432957395668139
10
69.323467450408017
20
-159.00841467864748
30
0
10
69.217465038367479
20
-159.08769150422674
30
0
10
68.993073364215846
20
-159.25550900262812
30
0
10
68.725262049598626
20
-159.33891897676764
30
0
10
68.583964543608701
20
-159.3829261589789
30
0
0
SPLINE
5
263
100
AcDbEntity
8
0
100
AcDbSpline
70
0
71
3
72
9
73
5
74
0
42
0.000000001
43
0.0000000001
44
0.0000000001
40
0
40
0
40
0
40
0
40
0.066167327742895105
40
0.12630800341111043
40
0.12630800341111043
40
0.12630800341111043
40
0.12630800341111043
10
82.244118886260068
20
-164.61974196918248
30
0
10
82.08568341328386
20
-164.78347915198833
30
0
10
81.783243085953757
20
-165.09604000868066
30
0
10
81.353681119928169
20
-165.1539407508254
30
0
10
81.149148183135068
20
-165.18150978572606
30
0
0
LINE
5
264
100
AcDbEntity
8
0
100
AcDbLine
10
67.94602795150665
20
-159.78600197322604
30
0
11
67.94602795150665
21
-160.34459524638891
31
0
0
SPLINE
5
265
100
AcDbEntity
8
0
100
AcDbSpline
70
0
71
3
72
9
73
5
74
0
42
0.000000001
43
0.0000000001
44
0.0000000001
40
0
40
0
40
0
40
0
40
0.12618848286420775
40
0.24702864105665362
40
0.24702864105665362
40
0.24702864105665362
40
0.24702864105665362
10
78.698953824309385
20
-152.70201855190035
30
0
10
78.706434453624922
20
-153.12259368273709
30
0
10
78.721078656107778
20
-153.94591844799811
30
0
10
78.753111970978267
20
-154.76874880991073
30
0
10
78.76878185775665
20
-155.17125659473177
30
0
0
SPLINE
5
266
100
AcDbEntity
8
0
100
AcDbSpline
70
0
71
3
72
9
73
5
74
0
42
0.000000001
43
0.0000000001
44
0.0000000001
40
0
40
0
40
0
40
0
40
0.2302590896538721
40
0.3708060990258023
40
0.3708060990258023
40
0.3708060990258023
40
0.3708060990258023
10
74.915751652983701
20
-161.14440017230748
30
0
10
74.153856954309134
20
-161.24123130816093
30
0
10
72.926912117913616
20
-161.39716684931173
30
0
10
71.717795352622915
20
-161.65576042655937
30
0
10
71.259502606658017
20
-161.75377541072606
30
0
0
LINE
5
267
100
AcDbEntity
8
0
100
AcDbLine
10
54.571515755919499
20
-158.17369752414459
30
0
11
54.571515755919492
21
-158.19908850677248
31
0
0
SPLINE
5
268
100
AcDbEntity
8
0
100
AcDbSpline
70
0
71
3
72
9
73
5
74
0
42
0.000000001
43
0.0000000001
44
0.0000000001
40
0
40
0
40
0
40
0
40
0.16919763081818914
40
0.27236570659936965
40
0.27236570659936965
40
0.27236570659936965
40
0.27236570659936965
10
83.205794530180967
20
-162.08385401256322
30
0
10
83.074971100996478
20
-162.63669025054
30
0
10
82.864378224741216
20
-163.52661779776491
30
0
10
82.414518902021001
20
-164.31943471948534
30
0
10
82.244118886260068
20
-164.61974196918248
30
0
0
LINE
5
269
100
AcDbEntity
8
0
100
AcDbLine
10
67.94602795150665
20
-161.91881471164464
30
0
11
67.94602795150665
21
-162.98522167690038
31
0
0
LINE
5
270
100
AcDbEntity
8
0
100
AcDbLine
10
77.423075871733701
20
-159.69713502414459
30
0
11
75.283917622832334
21
-159.95104127414461
31
0
0
LINE
5
271
100
AcDbEntity
8
0
100
AcDbLine
10
70.205792622832334
20
-161.91881471164464
30
0
11
67.94602795150665
21
-161.91881471164464
31
0
0
LINE
5
272
100
AcDbEntity
8
0
100
AcDbLine
10
51.72776623275665
20
-155.20299487598177
30
0
11
51.72776623275665
21
-157.63414674289461
31
0
0
LINE
5
273
100
AcDbEntity
8
0
100
AcDbLine
10
81.326884465483701
20
-154.91735034473177
30
0
11
82.545632558135068
21
-154.79674511440035
31
0
0
LINE
5
274
100
AcDbEntity
8
0
100
AcDbLine
10
67.514385419158017
20
-159.50670593269112
30
0
11
61.192120747832334
21
-159.50670593269106
31
0
0
SPLINE
5
275
100
AcDbEntity
8
0
100
AcDbSpline
70
0
71
3
72
9
73
5
74
0
42
0.000000001
43
0.0000000001
44
0.0000000001
40
0
40
0
40
0
40
0
40
0.075873190279266756
40
0.1547866748597346
40
0.1547866748597346
40
0.1547866748597346
40
0.1547866748597346
10
61.611065106658017
20
-161.91881471164464
30
0
10
61.804432227400383
20
-162.081851220781
30
0
10
62.198914831028191
20
-162.41445723137673
30
0
10
62.583145816712062
20
-162.75885733490588
30
0
10
62.779034810332334
20
-162.93443971164464
30
0
0
LINE
5
276
100
AcDbEntity
8
0
100
AcDbLine
10
31.618392156628644
20
-153.64147179610964
30
0
11
33.719466166762388
21
-153.64147179610964
31
0
0
LINE
5
277
100
AcDbEntity
8
0
100
AcDbLine
10
57.573956685332334
20
-161.91881471164464
30
0
11
57.573956685332334
21
-160.34459524638891
31
0
0
SPLINE
5
278
100
AcDbEntity
8
0
100
AcDbSpline
70
0
71
3
72
9
73
5
74
0
42
0.000000001
43
0.0000000001
44
0.0000000001
40
0
40
0
40
0
40
0
40
0.23349589469883011
40
0.47327803907300647
40
0.47327803907300647
40
0.47327803907300647
40
0.47327803907300647
10
70.510479645995176
20
-162.76940041072606
30
0
10
71.282133464862738
20
-162.66754436047455
30
0
10
72.84621580861392
20
-162.46109005945607
30
0
10
74.405202582371004
20
-162.21913367701376
30
0
10
75.195049481658017
20
-162.09654860980748
30
0
0
SPLINE
5
279
100
AcDbEntity
8
0
100
AcDbSpline
70
0
71
3
72
9
73
5
74
0
42
0.000000001
43
0.0000000001
44
0.0000000001
40
0
40
0
40
0
40
0
40
0.12254288181339422
40
0.23960292888257534
40
0.23960292888257534
40
0.23960292888257534
40
0.23960292888257534
10
56.863021092680967
20
-160.55406861789464
30
0
10
56.827107140015173
20
-160.97446277341214
30
0
10
56.756886102945273
20
-161.79644173666603
30
0
10
56.188541997652457
20
-162.39249830912456
30
0
10
55.910872655180967
20
-162.68370681293248
30
0
0
SPLINE
5
280
100
AcDbEntity
8
0
100
AcDbSpline
70
0
71
3
72
9
73
5
74
0
42
0.000000001
43
0.0000000001
44
0.0000000001
40
0
40
0
40
0
40
0
40
0.097654599637796269
40
0.19624842677242527
40
0.19624842677242527
40
0.19624842677242527
40
0.19624842677242527
10
55.59983654525665
20
-154.25084643848177
30
0
10
55.853477093739237
20
-154.47439678852101
30
0
10
56.363197667987933
20
-154.92364756280446
30
0
10
56.433930334810029
20
-155.59968579690582
30
0
10
56.469465928343809
20
-155.9393226433539
30
0
0
LINE
5
281
100
AcDbEntity
8
0
100
AcDbLine
10
75.347394185332334
20
-155.50768189914461
30
0
11
77.092999654082334
21
-155.3362952996039
31
0
0
SPLINE
5
282
100
AcDbEntity
8
0
100
AcDbSpline
70
0
71
3
72
9
73
5
74
0
42
0.000000001
43
0.0000000001
44
0.0000000001
40
0
40
0
40
0
40
0
40
0.039812576482120186
40
0.084586359579407078
40
0.084586359579407078
40
0.084586359579407078
40
0.084586359579407078
10
45.780014233855283
20
-160.92858009822606
30
0
10
45.762659665463936
20
-160.79405290910182
30
0
10
45.725787905532599
20
-160.50823455224219
30
0
10
45.537111318638992
20
-160.28916729784447
30
0
10
45.437239842680967
20
-160.17320924289464
30
0
0
SPLINE
5
283
100
AcDbEntity
8
0
100
AcDbSpline
70
0
71
3
72
9
73
5
74
0
42
0.000000001
43
0.0000000001
44
0.0000000001
40
0
40
0
40
0
40
0
40
0.11686616583707801
40
0.24400176326919701
40
0.24400176326919701
40
0.24400176326919701
40
0.24400176326919701
10
20.994627354179034
20
-89.419555154144774
30
0
10
21.300731464358638
20
-89.676775013342791
30
0
10
21.939838104786062
20
-90.213817524685737
30
0
10
22.774870647137604
20
-90.271713821887829
30
0
10
23.209959147010455
20
-90.301880326569091
30
0
0
LINE
5
284
100
AcDbEntity
8
0
100
AcDbLine
10
59.808332162169492
20
-162.3123698759818
30
0
11
60.176495747832334
21
-161.91881471164464
31
0
0
LINE
5
285
100
AcDbEntity
8
0
100
AcDbLine
10
41.362045245436704
20
-163.09947901256322
30
0
11
41.362045245436704
21
-160.99840455539464
31
0
0
SPLINE
5
286
100
AcDbEntity
8
0
100
AcDbSpline
70
0
71
3
72
9
73
5
74
0
42
0.000000001
43
0.0000000001
44
0.0000000001
40
0
40
0
40
0
40
0
40
0.10294198409738543
40
0.24259967626668233
40
0.24259967626668233
40
0.24259967626668233
40
0.24259967626668233
10
66.143292622832334
20
-165.01647048480748
30
0
10
65.80059301616339
20
-165.03487924945892
30
0
10
64.992965162828483
20
-165.07826252387395
30
0
10
64.184117763116035
20
-165.07933160683578
30
0
10
63.718487458495176
20
-165.07994704730748
30
0
0
SPLINE
5
287
100
AcDbEntity
8
0
100
AcDbSpline
70
0
71
3
72
9
73
5
74
0
42
0.000000001
43
0.0000000001
44
0.0000000001
40
0
40
0
40
0
40
0
40
0.20132438967732991
40
0.47542585897429662
40
0.47542585897429662
40
0.47542585897429662
40
0.47542585897429662
10
70.510479645995176
20
-156.81529932506319
30
0
10
70.893288222096785
20
-156.26242389618702
30
0
10
71.797287466339043
20
-154.95681320440477
30
0
10
72.43859372449046
20
-153.50243683110705
30
0
10
72.808331685332334
20
-152.66393237598177
30
0
0
SPLINE
5
288
100
AcDbEntity
8
0
100
AcDbSpline
70
0
71
3
72
9
73
5
74
0
42
0.000000001
43
0.0000000001
44
0.0000000001
40
0
40
0
40
0
40
0
40
0.083777338236894774
40
0.15555329557561715
40
0.15555329557561715
40
0.15555329557561715
40
0.15555329557561715
10
67.94602795150665
20
-162.98522167690038
30
0
10
67.93299334499028
20
-163.27094440305558
30
0
10
67.908791382468877
20
-163.80145912946779
30
0
10
67.606337396135217
20
-164.2354202745272
30
0
10
67.466777997283017
20
-164.43566017635106
30
0
0
SPLINE
5
289
100
AcDbEntity
8
0
100
AcDbSpline
70
0
71
3
72
9
73
5
74
0
42
0.000000001
43
0.0000000001
44
0.0000000001
40
0
40
0
40
0
40
0
40
0.14993772166135147
40
0.29463323015614501
40
0.29463323015614501
40
0.29463323015614501
40
0.29463323015614501
10
75.156964497832334
20
-162.95348220355748
30
0
10
75.631531696420552
20
-162.79469851905304
30
0
10
76.56407398862639
20
-162.48268264110544
30
0
10
77.446665774319769
20
-162.0491870187285
30
0
10
77.88010998275665
20
-161.8362956572318
30
0
0
SPLINE
5
290
100
AcDbEntity
8
0
100
AcDbSpline
70
0
71
3
72
9
73
5
74
0
42
0.000000001
43
0.0000000001
44
0.0000000001
40
0
40
0
40
0
40
0
40
0.086870198814245861
40
0.17773237301467526
40
0.17773237301467526
40
0.17773237301467526
40
0.17773237301467526
10
47.433578210143125
20
-159.0814124871039
30
0
10
47.593701495398342
20
-159.32873245551332
30
0
10
47.921306264948491
20
-159.8347375698024
30
0
10
47.961898339128822
20
-160.43673763305344
30
0
10
47.982650237349546
20
-160.74449830539464
30
0
0
LINE
5
291
100
AcDbEntity
8
0
100
AcDbLine
10
77.092999654082334
20
-155.3362952996039
30
0
11
76.985091405180967
21
-152.70201855190035
31
0
0
LINE
5
292
100
AcDbEntity
8
0
100
AcDbLine
10
61.522199349669492
20
-157.98326843269106
30
0
11
67.235089974669492
21
-157.98326843269106
31
0
0
SPLINE
5
293
100
AcDbEntity
8
0
100
AcDbSpline
70
0
71
3
72
9
73
5
74
0
42
0.000000001
43
0.0000000001
44
0.0000000001
40
0
40
0
40
0
40
0
40
0.055305908365762414
40
0.11461057127043525
40
0.11461057127043525
40
0.11461057127043525
40
0.11461057127043525
10
54.212874608305967
20
-161.54430323131322
30
0
10
54.343353993670284
20
-161.40610673520356
30
0
10
54.613746748034231
20
-161.11972179307486
30
0
10
54.644480745096047
20
-160.72603933956074
30
0
10
54.660383897093809
20
-160.52233033664464
30
0
0
SPLINE
5
294
100
AcDbEntity
8
0
100
AcDbSpline
70
0
71
3
72
9
73
5
74
0
42
0.000000001
43
0.0000000001
44
0.0000000001
40
0
40
0
40
0
40
0
40
0.13399625822837871
40
0.29027196790434356
40
0.29027196790434356
40
0.29027196790434356
40
0.29027196790434356
10
42.368148999480283
20
-154.23497729785677
30
0
10
42.763556169536855
20
-154.01408098043126
30
0
10
43.620114545817678
20
-153.53556009029833
30
0
10
44.603253538768598
20
-153.49712503789308
30
0
10
45.132552819518125
20
-153.47643249519106
30
0
0
SPLINE
5
295
100
AcDbEntity
8
0
100
AcDbSpline
70
0
71
3
72
9
73
5
74
0
42
0.000000001
43
0.0000000001
44
0.0000000001
40
0
40
0
40
0
40
0
40
0.31489672758582377
40
0.65106450243788938
40
0.65106450243788938
40
0.65106450243788938
40
0.65106450243788938
10
35.566634373930967
20
-163.6453776884818
30
0
10
34.415403869046727
20
-163.44462619165944
30
0
10
32.035178067400388
20
-163.02956257891788
30
0
10
31.76031416975249
20
-160.61001054822361
30
0
10
31.618392156628644
20
-159.36070971973177
30
0
0
SPLINE
5
296
100
AcDbEntity
8
0
100
AcDbSpline
70
0
71
3
72
9
73
5
74
0
42
0.000000001
43
0.0000000001
44
0.0000000001
40
0
40
0
40
0
40
0
40
0.12652412684768144
40
0.24986406252472493
40
0.24986406252472493
40
0.24986406252472493
40
0.24986406252472493
10
23.209959147010455
20
-90.301880326569091
30
0
10
23.635807551590222
20
-90.276806073109157
30
0
10
24.476787173730337
20
-90.227288601695861
30
0
10
25.230816116027448
20
-89.852246193038923
30
0
10
25.603026030097613
20
-89.667114701569091
30
0
0
LINE
5
297
100
AcDbEntity
8
0
100
AcDbLine
10
25.603026030097613
20
-82.32287653952838
30
0
11
25.603026030097613
21
-84.347778644859801
31
0
0
LINE
5
298
100
AcDbEntity
8
0
100
AcDbLine
10
32.280758497748991
20
-86.645630088150511
30
0
11
32.280758497748977
21
-86.67102107077838
31
0
0
SPLINE
5
299
100
AcDbEntity
8
0
100
AcDbSpline
70
0
71
3
72
9
73
5
74
0
42
0.000000001
43
0.0000000001
44
0.0000000001
40
0
40
0
40
0
40
0
40
0.085825878303649086
40
0.17499146045791603
40
0.17499146045791603
40
0.17499146045791603
40
0.17499146045791603
10
33.940671560798293
20
-87.432739224731932
30
0
10
34.124866466976762
20
-87.660760657095693
30
0
10
34.500423772979971
20
-88.12567641739669
30
0
10
34.548012813007603
20
-88.72209869661738
30
0
10
34.57226145032466
20
-89.026001181900511
30
0
0
SPLINE
5
300
100
AcDbEntity
8
0
100
AcDbSpline
70
0
71
3
72
9
73
5
74
0
42
0.000000001
43
0.0000000001
44
0.0000000001
40
0
40
0
40
0
40
0
40
0.12730989139639554
40
0.27620948587024213
40
0.27620948587024213
40
0.27620948587024213
40
0.27620948587024213
10
33.62011301282466
20
-91.155639376938353
30
0
10
33.254924224454811
20
-91.385765307389477
30
0
10
32.462616522556395
20
-91.885042812366748
30
0
10
31.523717580163364
20
-91.924599015279938
30
0
10
31.017573950324664
20
-91.945923056900511
30
0
0
SPLINE
5
301
100
AcDbEntity
8
0
100
AcDbSpline
70
0
71
3
72
9
73
5
74
0
42
0.000000001
43
0.0000000001
44
0.0000000001
40
0
40
0
40
0
40
0
40
0.12254288181339422
40
0.23960292888257534
40
0.23960292888257534
40
0.23960292888257534
40
0.23960292888257534
10
34.57226145032466
20
-89.026001181900511
30
0
10
34.53634749765888
20
-89.446395337418039
30
0
10
34.46612646058896
20
-90.268374300671894
30
0
10
33.897782355296151
20
-90.864430873130431
30
0
10
33.62011301282466
20
-91.155639376938353
30
0
0
SPLINE
5
302
100
AcDbEntity
8
0
100
AcDbSpline
70
0
71
3
72
9
73
5
74
0
42
0.000000001
43
0.0000000001
44
0.0000000001
40
0
40
0
40
0
40
0
40
0.13267929976581305
40
0.24510696471079146
40
0.24510696471079146
40
0.24510696471079146
40
0.24510696471079146
10
23.190916655097613
20
-81.948365059196959
30
0
10
23.635575966059115
20
-81.958115561478138
30
0
10
24.457023578705073
20
-81.976128288578451
30
0
10
25.242662672412983
20
-82.213840678538958
30
0
10
25.603026030097613
20
-82.32287653952838
30
0
0
LINE
5
303
100
AcDbEntity
8
0
100
AcDbLine
10
29.437008974586139
20
-86.106079306900511
30
0
11
30.433591482673297
21
-86.106079306900511
31
0
0
SPLINE
5
304
100
AcDbEntity
8
0
100
AcDbSpline
70
0
71
3
72
9
73
5
74
0
42
0.000000001
43
0.0000000001
44
0.0000000001
40
0
40
0
40
0
40
0
40
0.051447861060660662
40
0.10715962030383583
40
0.10715962030383583
40
0.10715962030383583
40
0.10715962030383583
10
31.563473818336139
20
-85.763306107819091
30
0
10
31.683762447257315
20
-85.633869908791979
30
0
10
31.934308991590086
20
-85.364270091513603
30
0
10
31.961786206023028
20
-84.996178685953623
30
0
10
31.976071474586139
20
-84.804809775650511
30
0
0
SPLINE
5
305
100
AcDbEntity
8
0
100
AcDbSpline
70
0
71
3
72
9
73
5
74
0
42
0.000000001
43
0.0000000001
44
0.0000000001
40
0
40
0
40
0
40
0
40
0.079424483362092832
40
0.16096067018872656
40
0.16096067018872656
40
0.16096067018872656
40
0.16096067018872656
10
33.639157888923293
20
-85.81408747702838
30
0
10
33.445922763185678
20
-85.999973563396352
30
0
10
33.054314860608187
20
-86.376687994186483
30
0
10
32.540856038390615
20
-86.555202059148854
30
0
10
32.280758497748977
20
-86.645630088150511
30
0
0
LINE
5
306
100
AcDbEntity
8
0
100
AcDbLine
10
29.437008974586139
20
-90.384399380981932
30
0
11
30.681148645911822
21
-90.384399380981932
31
0
0
LINE
5
307
100
AcDbEntity
8
0
100
AcDbLine
10
127.88837490334386
20
-89.225362767175824
30
0
11
126.76044521584386
21
-89.225362767175852
31
0
0
LINE
5
308
100
AcDbEntity
8
0
100
AcDbLine
10
113.79169521584386
20
-87.096456517175852
30
0
11
113.79169521584386
21
-86.276144017175852
31
0
0
SPLINE
5
309
100
AcDbEntity
8
0
100
AcDbSpline
70
0
71
3
72
9
73
5
74
0
42
0.000000001
43
0.0000000001
44
0.0000000001
40
0
40
0
40
0
40
0
40
0.054144204201676219
40
0.11505227502008511
40
0.11505227502008511
40
0.11505227502008511
40
0.11505227502008511
10
113.28388271584386
20
-86.549581517175852
30
0
10
113.1710587155665
20
-86.408673571678747
30
0
10
112.93131638118062
20
-86.10925501087651
30
0
10
112.67656124726473
20
-85.822488142750416
30
0
10
112.54169521584386
20
-85.670675267175852
30
0
0
LINE
5
310
100
AcDbEntity
8
0
100
AcDbLine
10
110.31513271584386
20
-86.569112767175852
30
0
11
110.31513271584386
21
-85.280050267175852
31
0
0
LINE
5
311
100
AcDbEntity
8
0
100
AcDbLine
10
132.54169521584384
20
-83.551534642175852
30
0
11
130.93036709084384
21
-83.551534642175852
31
0
0
LINE
5
312
100
AcDbEntity
8
0
100
AcDbLine
10
126.59442959084386
20
-86.803487767175852
30
0
11
126.59442959084386
21
-87.907003392175852
31
0
0
SPLINE
5
313
100
AcDbEntity
8
0
100
AcDbSpline
70
0
71
3
72
9
73
5
74
0
42
0.000000001
43
0.0000000001
44
0.0000000001
40
0
40
0
40
0
40
0
40
0.09197364182834239
40
0.1783901121292284
40
0.1783901121292284
40
0.1783901121292284
40
0.1783901121292284
10
130.93036709084384
20
-91.422628392175852
30
0
10
130.5886680319453
20
-91.383361825386956
30
0
10
129.92591583229733
20
-91.3072012307519
30
0
10
129.81312883230322
20
-90.654721113574283
30
0
10
129.75849209084384
20
-90.338644017175852
30
0
0
SPLINE
5
314
100
AcDbEntity
8
0
100
AcDbSpline
70
0
71
3
72
9
73
5
74
0
42
0.000000001
43
0.0000000001
44
0.0000000001
40
0
40
0
40
0
40
0
40
0.028740236034127543
40
0.057678882496846537
40
0.057678882496846537
40
0.057678882496846537
40
0.057678882496846537
10
113.79169521584386
20
-86.276144017175852
30
0
10
113.70813314124625
20
-86.323012693208497
30
0
10
113.54043211484606
20
-86.417073606781415
30
0
10
113.36959507045759
20
-86.505311037303244
30
0
10
113.28388271584386
20
-86.549581517175852
30
0
0
LINE
5
315
100
AcDbEntity
8
0
100
AcDbLine
10
118.38153896584386
20
-86.198019017175852
30
0
11
118.02997646584386
21
-87.369894017175852
31
0
0
SPLINE
5
316
100
AcDbEntity
8
0
100
AcDbSpline
70
0
71
3
72
9
73
5
74
0
42
0.000000001
43
0.0000000001
44
0.0000000001
40
0
40
0
40
0
40
0
40
0.017527613651993734
40
0.035248002187179744
40
0.035248002187179744
40
0.035248002187179744
40
0.035248002187179744
10
131.39911709084384
20
-90.328878392175852
30
0
10
131.46003218697234
20
-90.321395253159523
30
0
10
131.58253234496303
20
-90.306346672922018
30
0
10
131.65218581992093
20
-90.204366232866008
30
0
10
131.68720302834384
20
-90.153097142175852
30
0
0
LWPOLYLINE
5
317
100
AcDbEntity
8
0
100
AcDbPolyline
90
4
70
1
43
0.0
10
131.09638271584384
20
-87.028097142175852
10
127.99091396584386
20
-87.028097142175852
10
127.99091396584386
20
-86.588644017175852
10
131.09638271584384
20
-86.588644017175852
0
LINE
5
318
100
AcDbEntity
8
0
100
AcDbLine
10
132.32685146584384
20
-85.660909642175852
30
0
11
132.32685146584384
21
-89.225362767175852
31
0
0
LINE
5
319
100
AcDbEntity
8
0
100
AcDbLine
10
126.75067959084386
20
-83.551534642175852
30
0
11
126.75067959084387
21
-82.574972142175852
31
0
0
SPLINE
5
320
100
AcDbEntity
8
0
100
AcDbSpline
70
0
71
3
72
9
73
5
74
0
42
0.000000001
43
0.0000000001
44
0.0000000001
40
0
40
0
40
0
40
0
40
0.13988916948835897
40
0.25701994392644201
40
0.25701994392644201
40
0.25701994392644201
40
0.25701994392644201
10
126.61396084084386
20
-89.772237767175852
30
0
10
126.22597394659145
20
-90.032365859550595
30
0
10
125.51312126350192
20
-90.510302128386712
30
0
10
124.88069143601268
20
-91.090058659071815
30
0
10
124.59247646584386
20
-91.354269017175852
30
0
0
SPLINE
5
321
100
AcDbEntity
8
0
100
AcDbSpline
70
0
71
3
72
9
73
5
74
0
42
0.000000001
43
0.0000000001
44
0.0000000001
40
0
40
0
40
0
40
0
40
0.062836693806254451
40
0.13179507661922843
40
0.13179507661922843
40
0.13179507661922843
40
0.13179507661922843
10
125.43232021584386
20
-89.186300267175852
30
0
10
125.59569660627041
20
-89.055209910867617
30
0
10
125.93836587465094
20
-88.780258087225249
30
0
10
126.27290580490195
20
-88.495466426230195
30
0
10
126.44794521584386
20
-88.346456517175852
30
0
0
LWPOLYLINE
5
322
100
AcDbEntity
8
0
100
AcDbPolyline
90
4
70
1
43
0.0
10
131.09638271584384
20
-87.867940892175852
10
131.09638271584384
20
-88.307394017175852
10
127.99091396584386
20
-88.307394017175852
10
127.99091396584386
20
-87.867940892175852
0
LINE
5
323
100
AcDbEntity
8
0
100
AcDbLine
10
124.20185146584386
20
-89.606222142175852
30
0
11
124.20185146584386
21
-87.907003392175852
31
0
0
SPLINE
5
324
100
AcDbEntity
8
0
100
AcDbSpline
70
0
71
3
72
9
73
5
74
0
42
0.000000001
43
0.0000000001
44
0.0000000001
40
0
40
0
40
0
40
0
40
0.039277059666892836
40
0.088790078556997054
40
0.088790078556997054
40
0.088790078556997054
40
0.088790078556997054
10
123.93817959084386
20
-90.436300267175852
30
0
10
124.01482205385594
20
-90.326862111378603
30
0
10
124.18808070329048
20
-90.079465220349078
30
0
10
124.19692148206892
20
-89.775644909284608
30
0
10
124.20185146584386
20
-89.606222142175852
30
0
0
LINE
5
325
100
AcDbEntity
8
0
100
AcDbLine
10
132.54169521584387
20
-82.574972142175852
30
0
11
132.54169521584384
21
-83.551534642175852
31
0
0
LINE
5
326
100
AcDbEntity
8
0
100
AcDbLine
10
129.75849209084384
20
-90.338644017175852
30
0
11
129.75849209084384
21
-89.225362767175852
31
0
0
LINE
5
327
100
AcDbEntity
8
0
100
AcDbLine
10
125.24189052834387
20
-82.916769017175852
30
0
11
126.41864834084387
21
-82.916769017175852
31
0
0
SPLINE
5
328
100
AcDbEntity
8
0
100
AcDbSpline
70
0
71
3
72
9
73
5
74
0
42
0.000000001
43
0.0000000001
44
0.0000000001
40
0
40
0
40
0
40
0
40
0.061362403960006133
40
0.11810606361257525
40
0.11810606361257525
40
0.11810606361257525
40
0.11810606361257525
10
119.95380459084386
20
-85.543722142175852
30
0
10
119.83543718131004
20
-85.710563938313385
30
0
10
119.60761186975334
20
-86.031689359030224
30
0
10
119.39289978655793
20
-86.361721712038261
30
0
10
119.28974209084386
20
-86.520284642175852
30
0
0
SPLINE
5
329
100
AcDbEntity
8
0
100
AcDbSpline
70
0
71
3
72
9
73
5
74
0
42
0.000000001
43
0.0000000001
44
0.0000000001
40
0
40
0
40
0
40
0
40
0.15239132847345388
40
0.29183158976371604
40
0.29183158976371604
40
0.29183158976371604
40
0.29183158976371604
10
119.28974209084386
20
-86.520284642175852
30
0
10
118.82507935330463
20
-86.306889392069991
30
0
10
117.93524351580382
20
-85.898234413402591
30
0
10
117.20636664597579
20
-85.2453335903745
30
0
10
116.85810146584386
20
-84.933370579675852
30
0
0
SPLINE
5
330
100
AcDbEntity
8
0
100
AcDbSpline
70
0
71
3
72
9
73
5
74
0
42
0.000000001
43
0.0000000001
44
0.0000000001
40
0
40
0
40
0
40
0
40
0.060251314425870957
40
0.11962167637594059
40
0.11962167637594059
40
0.11962167637594059
40
0.11962167637594059
10
131.82880459084384
20
-89.274190892175852
30
0
10
132.01405288016963
20
-89.352108742837373
30
0
10
132.38184088821703
20
-89.506805183978202
30
0
10
132.76278308813514
20
-89.625457761295579
30
0
10
132.95185146584384
20
-89.684347142175852
30
0
0
LINE
5
331
100
AcDbEntity
8
0
100
AcDbLine
10
130.98896084084384
20
-89.225362767175852
30
0
11
130.98896084084384
21
-89.957784642175852
31
0
0
LINE
5
332
100
AcDbEntity
8
0
100
AcDbLine
10
125.43232021584386
20
-85.856222142175852
30
0
11
125.43232021584386
21
-86.803487767175852
31
0
0
LWPOLYLINE
5
333
100
AcDbEntity
8
0
100
AcDbPolyline
90
4
70
1
43
0.0
10
137.81492969911002
20
-27.782882826059073
10
105.6965979620383
20
-27.782882826059073
10
105.6965979620383
20
-79.343072203214149
10
137.81492969911002
20
-79.343072203214149
0
LINE
5
334
100
AcDbEntity
8
0
100
AcDbLine
10
125.43232021584386
20
-86.803487767175852
30
0
11
126.59442959084386
21
-86.803487767175852
31
0
0
LINE
5
335
100
AcDbEntity
8
0
100
AcDbLine
10
131.29169521584387
20
-90.328878392175852
30
0
11
131.39911709084384
21
-90.328878392175852
31
0
0
LINE
5
336
100
AcDbEntity
8
0
100
AcDbLine
10
130.53974209084384
20
-83.551534642175852
30
0
11
128.57685146584384
21
-83.551534642175852
31
0
0
LINE
5
337
100
AcDbEntity
8
0
100
AcDbLine
10
126.41864834084386
20
-84.010519017175852
30
0
11
124.87567959084386
21
-84.010519017175852
31
0
0
SPLINE
5
338
100
AcDbEntity
8
0
100
AcDbSpline
70
0
71
3
72
9
73
5
74
0
42
0.000000001
43
0.0000000001
44
0.0000000001
40
0
40
0
40
0
40
0
40
0.15655069028738125
40
0.3335905232491731
40
0.3335905232491731
40
0.3335905232491731
40
0.3335905232491731
10
129.14325771584384
20
-89.225362767175852
30
0
10
128.97917125827061
20
-89.746802125205647
30
0
10
128.62952292941634
20
-90.857926119411943
30
0
10
127.55520557468303
20
-91.328918184383554
30
0
10
126.98505459084386
20
-91.578878392175852
30
0
0
LINE
5
339
100
AcDbEntity
8
0
100
AcDbLine
10
126.76044521584386
20
-89.225362767175852
30
0
11
126.76044521584386
21
-85.660909642175852
31
0
0
SPLINE
5
340
100
AcDbEntity
8
0
100
AcDbSpline
70
0
71
3
72
9
73
5
74
0
42
0.000000001
43
0.0000000001
44
0.0000000001
40
0
40
0
40
0
40
0
40
0.06386785944313958
40
0.13341152110310106
40
0.13341152110310106
40
0.13341152110310106
40
0.13341152110310106
10
126.98505459084386
20
-91.578878392175852
30
0
10
126.86134604751012
20
-91.405356923281971
30
0
10
126.60293524302254
20
-91.042893497843608
30
0
10
126.30205251655403
20
-90.714765834661534
30
0
10
126.14521084084386
20
-90.543722142175852
30
0
0
SPLINE
5
341
100
AcDbEntity
8
0
100
AcDbSpline
70
0
71
3
72
9
73
5
74
0
42
0.000000001
43
0.0000000001
44
0.0000000001
40
0
40
0
40
0
40
0
40
0.13332654543327341
40
0.22690894630739378
40
0.22690894630739378
40
0.22690894630739378
40
0.22690894630739378
10
126.14521084084386
20
-90.543722142175852
30
0
10
126.59667081549905
20
-90.41690619957879
30
0
10
127.36501223480212
20
-90.201077672587658
30
0
10
127.73555475552789
20
-89.510268254391363
30
0
10
127.88837490334386
20
-89.225362767175852
30
0
0
LINE
5
342
100
AcDbEntity
8
0
100
AcDbLine
10
123.23505459084386
20
-87.907003392175852
30
0
11
123.23505459084386
21
-86.803487767175852
31
0
0
LINE
5
343
100
AcDbEntity
8
0
100
AcDbLine
10
132.32685146584384
20
-89.225362767175852
30
0
11
130.98896084084384
21
-89.225362767175852
31
0
0
LINE
5
344
100
AcDbEntity
8
0
100
AcDbLine
10
126.59442959084386
20
-87.907003392175852
30
0
11
125.43232021584386
21
-87.907003392175852
31
0
0
LINE
5
345
100
AcDbEntity
8
0
100
AcDbLine
10
132.81513271584384
20
-85.260519017175852
30
0
11
126.47724209084386
21
-85.260519017175852
31
0
0
SPLINE
5
346
100
AcDbEntity
8
0
100
AcDbSpline
70
0
71
3
72
9
73
5
74
0
42
0.000000001
43
0.0000000001
44
0.0000000001
40
0
40
0
40
0
40
0
40
0.1544522818666329
40
0.28263448025404142
40
0.28263448025404142
40
0.28263448025404142
40
0.28263448025404142
10
114.46552334084386
20
-91.295675267175852
30
0
10
113.93447203964351
20
-91.272903327379495
30
0
10
112.96269352857823
20
-91.231232623062667
30
0
10
112.21619122038234
20
-90.617147728701113
30
0
10
111.87763271584386
20
-90.338644017175852
30
0
0
LINE
5
347
100
AcDbEntity
8
0
100
AcDbLine
10
112.45380459084386
20
-85.280050267175852
30
0
11
112.45380459084386
21
-89.337667454675852
31
0
0
SPLINE
5
348
100
AcDbEntity
8
0
100
AcDbSpline
70
0
71
3
72
9
73
5
74
0
42
0.000000001
43
0.0000000001
44
0.0000000001
40
0
40
0
40
0
40
0
40
0.045398341456967972
40
0.096536333056907522
40
0.096536333056907522
40
0.096536333056907522
40
0.096536333056907522
10
116.71161709084386
20
-89.821065892175852
30
0
10
116.68575164002823
20
-89.671947056130421
30
0
10
116.63075060486989
20
-89.354856493798223
30
0
10
116.56231988122835
20
-89.040384738330715
30
0
10
116.52607021584386
20
-88.873800267175852
30
0
0
LINE
5
349
100
AcDbEntity
8
0
100
AcDbLine
10
124.20185146584386
20
-85.856222142175852
30
0
11
123.97235927834386
21
-85.856222142175852
31
0
0
SPLINE
5
350
100
AcDbEntity
8
0
100
AcDbSpline
70
0
71
3
72
9
73
5
74
0
42
0.000000001
43
0.0000000001
44
0.0000000001
40
0
40
0
40
0
40
0
40
0.056299166914093382
40
0.12381674119713949
40
0.12381674119713949
40
0.12381674119713949
40
0.12381674119713949
10
113.66474209084386
20
-89.948019017175852
30
0
10
113.54538465398616
20
-89.803081945903045
30
0
10
113.28288611840546
20
-89.484327036597875
30
0
10
112.99283147701368
20
-89.190354316386973
30
0
10
112.83466396584386
20
-89.030050267175852
30
0
0
LINE
5
351
100
AcDbEntity
8
0
100
AcDbLine
10
110.81317959084386
20
-91.559347142175852
30
0
11
110.25653896584386
21
-90.055440892175852
31
0
0
LINE
5
352
100
AcDbEntity
8
0
100
AcDbLine
10
127.37567959084386
20
-83.776144017175852
30
0
11
128.29853115334384
21
-83.551534642175852
31
0
0
LINE
5
353
100
AcDbEntity
8
0
100
AcDbLine
10
111.23310146584386
20
-86.569112767175852
30
0
11
110.31513271584386
21
-86.569112767175852
31
0
0
SPLINE
5
354
100
AcDbEntity
8
0
100
AcDbSpline
70
0
71
3
72
9
73
5
74
0
42
0.000000001
43
0.0000000001
44
0.0000000001
40
0
40
0
40
0
40
0
40
0.043946668815875077
40
0.087500973133836368
40
0.087500973133836368
40
0.087500973133836368
40
0.087500973133836368
10
128.57685146584384
20
-83.551534642175852
30
0
10
128.66009675545581
20
-83.672104431661666
30
0
10
128.82584410437028
20
-83.912167539851993
30
0
10
128.97908848386817
20
-84.16039788928019
30
0
10
129.05536709084384
20
-84.283956517175852
30
0
0
SPLINE
5
355
100
AcDbEntity
8
0
100
AcDbSpline
70
0
71
3
72
9
73
5
74
0
42
0.000000001
43
0.0000000001
44
0.0000000001
40
0
40
0
40
0
40
0
40
0.03004517174394733
40
0.061660204374620435
40
0.061660204374620435
40
0.061660204374620435
40
0.061660204374620435
10
128.85028896584387
20
-82.574972142175852
30
0
10
128.80282432686127
20
-82.486771933692438
30
0
10
128.70541502046169
20
-82.305763053885727
30
0
10
128.60106035286273
20
-82.128665820355096
30
0
10
128.54755459084387
20
-82.037862767175852
30
0
0
LINE
5
356
100
AcDbEntity
8
0
100
AcDbLine
10
124.59247646584386
20
-91.354269017175866
30
0
11
123.93817959084386
21
-90.436300267175852
31
0
0
SPLINE
5
357
100
AcDbEntity
8
0
100
AcDbSpline
70
0
71
3
72
9
73
5
74
0
42
0.000000001
43
0.0000000001
44
0.0000000001
40
0
40
0
40
0
40
0
40
0.034328301093752844
40
0.072549615373242782
40
0.072549615373242782
40
0.072549615373242782
40
0.072549615373242782
10
118.89423427834386
20
-89.559835423425852
30
0
10
118.80081568331113
20
-89.62970618653371
30
0
10
118.6033843242752
20
-89.777371431471579
30
0
10
118.35734910700624
20
-89.801192185464402
30
0
10
118.22773037209386
20
-89.813741673425852
30
0
0
LINE
5
358
100
AcDbEntity
8
0
100
AcDbLine
10
126.30146084084386
20
-85.856222142175852
30
0
11
125.43232021584386
21
-85.856222142175852
31
0
0
LINE
5
359
100
AcDbEntity
8
0
100
AcDbLine
10
129.05536709084384
20
-84.283956517175852
30
0
11
130.10028896584384
21
-84.283956517175852
31
0
0
LINE
5
360
100
AcDbEntity
8
0
100
AcDbLine
10
124.20185146584386
20
-87.907003392175852
30
0
11
123.23505459084386
21
-87.907003392175852
31
0
0
LINE
5
361
100
AcDbEntity
8
0
100
AcDbLine
10
119.48505459084386
20
-91.344503392175852
30
0
11
114.46552334084386
21
-91.295675267175852
31
0
0
SPLINE
5
362
100
AcDbEntity
8
0
100
AcDbSpline
70
0
71
3
72
9
73
5
74
0
42
0.000000001
43
0.0000000001
44
0.0000000001
40
0
40
0
40
0
40
0
40
0.040622278269046942
40
0.080358930693553793
40
0.080358930693553793
40
0.080358930693553793
40
0.080358930693553793
10
124.87567959084386
20
-84.010519017175852
30
0
10
124.82777330346158
20
-84.137209428024221
30
0
10
124.73300515673087
20
-84.387828211083956
30
0
10
124.62263787307481
20
-84.631977327558928
30
0
10
124.56806240334386
20
-84.752706517175852
30
0
0
SPLINE
5
363
100
AcDbEntity
8
0
100
AcDbSpline
70
0
71
3
72
9
73
5
74
0
42
0.000000001
43
0.0000000001
44
0.0000000001
40
0
40
0
40
0
40
0
40
0.15839158124466651
40
0.32209055564995714
40
0.32209055564995714
40
0.32209055564995714
40
0.32209055564995714
10
123.20575771584386
20
-84.830831517175852
30
0
10
123.44746309968298
20
-84.358910357719964
30
0
10
123.93897294365674
20
-83.399254880593844
30
0
10
124.17801647572233
20
-82.347696398861814
30
0
10
124.29950771584387
20
-81.813253392175852
30
0
0
SPLINE
5
364
100
AcDbEntity
8
0
100
AcDbSpline
70
0
71
3
72
9
73
5
74
0
42
0.000000001
43
0.0000000001
44
0.0000000001
40
0
40
0
40
0
40
0
40
0.16101240803606587
40
0.35108858513159458
40
0.35108858513159458
40
0.35108858513159458
40
0.35108858513159458
10
116.45282802834386
20
-90.104269017175852
30
0
10
116.98953745229176
20
-90.102690460089377
30
0
10
118.15983578258228
20
-90.099248406270064
30
0
10
119.33003497944198
20
-90.083498823503362
30
0
10
119.96357021584386
20
-90.074972142175852
30
0
0
LINE
5
365
100
AcDbEntity
8
0
100
AcDbLine
10
116.71161709084386
20
-88.180440892175852
30
0
11
117.05341396584386
21
-87.096456517175852
31
0
0
LINE
5
366
100
AcDbEntity
8
0
100
AcDbLine
10
126.75067959084387
20
-82.574972142175852
30
0
11
128.85028896584387
21
-82.574972142175852
31
0
0
LINE
5
367
100
AcDbEntity
8
0
100
AcDbLine
10
115.68622646584386
20
-83.707784642175852
30
0
11
115.68622646584387
21
-83.141378392175824
31
0
0
SPLINE
5
368
100
AcDbEntity
8
0
100
AcDbSpline
70
0
71
3
72
9
73
5
74
0
42
0.000000001
43
0.0000000001
44
0.0000000001
40
0
40
0
40
0
40
0
40
0.070577334632864919
40
0.16196357647516349
40
0.16196357647516349
40
0.16196357647516349
40
0.16196357647516349
10
111.87763271584386
20
-90.338644017175852
30
0
10
111.72187962751785
20
-90.514962446602084
30
0
10
111.36445146217901
20
-90.919584746054269
30
0
10
111.01202980076017
20
-91.328577365264806
30
0
10
110.81317959084386
20
-91.559347142175852
30
0
0
SPLINE
5
369
100
AcDbEntity
8
0
100
AcDbSpline
70
0
71
3
72
9
73
5
74
0
42
0.000000001
43
0.0000000001
44
0.0000000001
40
0
40
0
40
0
40
0
40
0.038794216109447603
40
0.073426114519160993
40
0.073426114519160993
40
0.073426114519160993
40
0.073426114519160993
10
119.19696865334386
20
-88.903097142175852
30
0
10
119.17350704964494
20
-89.032883409886111
30
0
10
119.12910108987148
20
-89.27853088808294
30
0
10
118.96950758141664
20
-89.469679128430869
30
0
10
118.89423427834386
20
-89.559835423425852
30
0
0
LINE
5
370
100
AcDbEntity
8
0
100
AcDbLine
10
124.29950771584387
20
-81.813253392175852
30
0
11
125.47138271584387
21
-82.008565892175852
31
0
0
LINE
5
371
100
AcDbEntity
8
0
100
AcDbLine
10
130.93036709084384
20
-83.551534642175852
30
0
11
131.87763271584384
21
-83.795675267175852
31
0
0
LINE
5
372
100
AcDbEntity
8
0
100
AcDbLine
10
116.85810146584387
20
-83.092550267175852
30
0
11
116.85810146584386
21
-83.707784642175852
31
0
0
LINE
5
373
100
AcDbEntity
8
0
100
AcDbLine
10
131.54560146584384
20
-84.283956517175852
30
0
11
132.81513271584384
21
-84.283956517175852
31
0
0
LINE
5
374
100
AcDbEntity
8
0
100
AcDbLine
10
116.85810146584386
20
-83.707784642175852
30
0
11
119.52411709084386
21
-83.707784642175852
31
0
0
LINE
5
375
100
AcDbEntity
8
0
100
AcDbLine
10
111.23310146584387
20
-89.200948704675852
30
0
11
111.23310146584386
21
-86.569112767175852
31
0
0
LINE
5
376
100
AcDbEntity
8
0
100
AcDbLine
10
126.41864834084387
20
-82.916769017175852
30
0
11
126.41864834084386
21
-84.010519017175852
31
0
0
LINE
5
377
100
AcDbEntity
8
0
100
AcDbLine
10
118.27411709084386
20
-88.180440892175852
30
0
11
116.71161709084386
21
-88.180440892175852
31
0
0
LINE
5
378
100
AcDbEntity
8
0
100
AcDbLine
10
116.85810146584386
20
-85.973409642175852
30
0
11
115.68622646584386
21
-85.973409642175852
31
0
0
SPLINE
5
379
100
AcDbEntity
8
0
100
AcDbSpline
70
0
71
3
72
9
73
5
74
0
42
0.000000001
43
0.0000000001
44
0.0000000001
40
0
40
0
40
0
40
0
40
0.028842711854645826
40
0.053370037019001143
40
0.053370037019001143
40
0.053370037019001143
40
0.053370037019001143
10
130.98896084084384
20
-89.957784642175852
30
0
10
130.99695668264334
20
-90.06580034891158
30
0
10
131.01175204498614
20
-90.265670676506687
30
0
10
131.2035502904354
20
-90.308976355037998
30
0
10
131.29169521584384
20
-90.328878392175852
30
0
0
LINE
5
380
100
AcDbEntity
8
0
100
AcDbLine
10
126.47724209084386
20
-85.260519017175852
30
0
11
126.47724209084386
21
-84.283956517175852
31
0
0
LINE
5
381
100
AcDbEntity
8
0
100
AcDbLine
10
119.15302334084387
20
-82.975362767175852
30
0
11
116.85810146584387
21
-83.092550267175852
31
0
0
LINE
5
382
100
AcDbEntity
8
0
100
AcDbLine
10
113.08857021584386
20
-84.615987767175852
30
0
11
113.08857021584386
21
-83.707784642175852
31
0
0
SPLINE
5
383
100
AcDbEntity
8
0
100
AcDbSpline
70
0
71
3
72
9
73
5
74
0
42
0.000000001
43
0.0000000001
44
0.0000000001
40
0
40
0
40
0
40
0
40
0.13063582498697346
40
0.24994973635266948
40
0.24994973635266948
40
0.24994973635266948
40
0.24994973635266948
10
112.54169521584386
20
-85.670675267175852
30
0
10
112.95258846854378
20
-85.523179936793156
30
0
10
113.73876377835388
20
-85.240972365125231
30
0
10
114.45875055142045
20
-84.817928460188597
30
0
10
114.80243740334386
20
-84.615987767175852
30
0
0
SPLINE
5
384
100
AcDbEntity
8
0
100
AcDbSpline
70
0
71
3
72
9
73
5
74
0
42
0.000000001
43
0.0000000001
44
0.0000000001
40
0
40
0
40
0
40
0
40
0.29217217553083136
40
0.56310315729196503
40
0.56310315729196503
40
0.56310315729196503
40
0.56310315729196503
10
113.38153896584387
20
-82.282003392175824
30
0
10
114.35508524310006
20
-82.25307245134519
30
0
10
116.23140006156896
20
-82.197313876472123
30
0
10
118.10505175728387
20
-82.083066182178641
30
0
10
119.00653896584387
20
-82.028097142175852
30
0
0
LINE
5
385
100
AcDbEntity
8
0
100
AcDbLine
10
132.81513271584384
20
-84.283956517175852
30
0
11
132.81513271584384
21
-85.260519017175852
31
0
0
SPLINE
5
386
100
AcDbEntity
8
0
100
AcDbSpline
70
0
71
3
72
9
73
5
74
0
42
0.000000001
43
0.0000000001
44
0.0000000001
40
0
40
0
40
0
40
0
40
0.074267321303385661
40
0.13567487663426564
40
0.13567487663426564
40
0.13567487663426564
40
0.13567487663426564
10
119.96357021584386
20
-90.074972142175852
30
0
10
119.87402368614244
20
-90.305775131039567
30
0
10
119.71043606567834
20
-90.727416392516957
30
0
10
119.55527964971111
20
-91.152229511152171
30
0
10
119.48505459084386
20
-91.344503392175852
30
0
0
SPLINE
5
387
100
AcDbEntity
8
0
100
AcDbSpline
70
0
71
3
72
9
73
5
74
0
42
0.000000001
43
0.0000000001
44
0.0000000001
40
0
40
0
40
0
40
0
40
0.046036532822081255
40
0.095213145682992328
40
0.095213145682992328
40
0.095213145682992328
40
0.095213145682992328
10
113.54755459084387
20
-83.219503392175824
30
0
10
113.52304235816753
20
-83.068009716600841
30
0
10
113.47234595168862
20
-82.754689218327897
30
0
10
113.41246622850423
20
-82.44299187302056
30
0
10
113.38153896584387
20
-82.282003392175824
30
0
0
SPLINE
5
388
100
AcDbEntity
8
0
100
AcDbSpline
70
0
71
3
72
9
73
5
74
0
42
0.000000001
43
0.0000000001
44
0.0000000001
40
0
40
0
40
0
40
0
40
0.097733810142635102
40
0.22122462954324656
40
0.22122462954324656
40
0.22122462954324656
40
0.22122462954324656
10
112.45380459084386
20
-89.337667454675852
30
0
10
112.70855941196272
20
-89.554807047500958
30
0
10
113.28520776777864
20
-90.04631173673593
30
0
10
114.04895442600062
20
-90.070972030827576
30
0
10
114.47528896584386
20
-90.084737767175852
30
0
0
SPLINE
5
389
100
AcDbEntity
8
0
100
AcDbSpline
70
0
71
3
72
9
73
5
74
0
42
0.000000001
43
0.0000000001
44
0.0000000001
40
0
40
0
40
0
40
0
40
0.047404320624160369
40
0.093687646236565947
40
0.093687646236565947
40
0.093687646236565947
40
0.093687646236565947
10
125.47138271584387
20
-82.008565892175852
30
0
10
125.43644478353598
20
-82.162697249375015
30
0
10
125.36739511466186
20
-82.467315138147725
30
0
10
125.28339034475346
20
-82.768150914750564
30
0
10
125.24189052834387
20
-82.916769017175852
30
0
0
LINE
5
390
100
AcDbEntity
8
0
100
AcDbLine
10
116.85810146584384
20
-84.933370579675852
30
0
11
116.85810146584386
21
-85.973409642175852
31
0
0
SPLINE
5
391
100
AcDbEntity
8
0
100
AcDbSpline
70
0
71
3
72
9
73
5
74
0
42
0.000000001
43
0.0000000001
44
0.0000000001
40
0
40
0
40
0
40
0
40
0.079894063665560178
40
0.16229143418055686
40
0.16229143418055686
40
0.16229143418055686
40
0.16229143418055686
10
123.60614834084386
20
-86.403097142175852
30
0
10
123.54979261493247
20
-86.142718308678653
30
0
10
123.43531537891741
20
-85.613802236823702
30
0
10
123.28305977239835
20
-85.094491836941955
30
0
10
123.20575771584386
20
-84.830831517175852
30
0
0
SPLINE
5
392
100
AcDbEntity
8
0
100
AcDbSpline
70
0
71
3
72
9
73
5
74
0
42
0.000000001
43
0.0000000001
44
0.0000000001
40
0
40
0
40
0
40
0
40
0.074489701244069062
40
0.1381406785709951
40
0.1381406785709951
40
0.1381406785709951
40
0.1381406785709951
10
112.88349209084386
20
-83.639425267175852
30
0
10
112.67445252653732
20
-83.773449751538308
30
0
10
112.28678998018246
20
-84.021997307854775
30
0
10
111.90641392965161
20
-84.281550080096594
30
0
10
111.73114834084386
20
-84.401144017175852
30
0
0
SPLINE
5
393
100
AcDbEntity
8
0
100
AcDbSpline
70
0
71
3
72
9
73
5
74
0
42
0.000000001
43
0.0000000001
44
0.0000000001
40
0
40
0
40
0
40
0
40
0.029387271022513043
40
0.05904910106601409
40
0.05904910106601409
40
0.05904910106601409
40
0.05904910106601409
10
131.87763271584384
20
-83.795675267175852
30
0
10
131.8233836486871
20
-83.877242919941395
30
0
10
131.71437867688073
20
-84.04114029469865
30
0
10
131.60203465718092
20
-84.20276727214322
30
0
10
131.54560146584384
20
-84.283956517175852
30
0
0
LINE
5
394
100
AcDbEntity
8
0
100
AcDbLine
10
117.05341396584386
20
-87.096456517175852
30
0
11
115.70575771584386
21
-87.096456517175852
31
0
0
SPLINE
5
395
100
AcDbEntity
8
0
100
AcDbSpline
70
0
71
3
72
9
73
5
74
0
42
0.000000001
43
0.0000000001
44
0.0000000001
40
0
40
0
40
0
40
0
40
0.10596863291989031
40
0.21989607800142227
40
0.21989607800142227
40
0.21989607800142227
40
0.21989607800142227
10
115.68622646584386
20
-84.889425267175852
30
0
10
115.42147871734903
20
-85.124310439198183
30
0
10
114.87209924580552
20
-85.611721918286023
30
0
10
114.24725890704431
20
-85.997927274334117
30
0
10
113.92353115334386
20
-86.198019017175852
30
0
0
SPLINE
5
396
100
AcDbEntity
8
0
100
AcDbSpline
70
0
71
3
72
9
73
5
74
0
42
0.000000001
43
0.0000000001
44
0.0000000001
40
0
40
0
40
0
40
0
40
0.11769122896855631
40
0.22431809222393809
40
0.22431809222393809
40
0.22431809222393809
40
0.22431809222393809
10
111.73114834084386
20
-84.401144017175852
30
0
10
111.52058819345694
20
-84.070007060703119
30
0
10
111.1192630397121
20
-83.438863933115854
30
0
10
110.68012270584886
20
-82.833450935508665
30
0
10
110.47138271584387
20
-82.545675267175824
30
0
0
LINE
5
397
100
AcDbEntity
8
0
100
AcDbLine
10
128.29853115334384
20
-83.551534642175852
30
0
11
126.75067959084386
21
-83.551534642175852
31
0
0
LINE
5
398
100
AcDbEntity
8
0
100
AcDbLine
10
115.68622646584386
20
-85.973409642175852
30
0
11
115.68622646584386
21
-84.889425267175852
31
0
0
LINE
5
399
100
AcDbEntity
8
0
100
AcDbLine
10
129.75849209084384
20
-89.225362767175852
30
0
11
129.14325771584384
21
-89.225362767175852
31
0
0
LINE
5
400
100
AcDbEntity
8
0
100
AcDbLine
10
114.62665615334386
20
-87.096456517175852
30
0
11
113.79169521584386
21
-87.096456517175852
31
0
0
SPLINE
5
401
100
AcDbEntity
8
0
100
AcDbSpline
70
0
71
3
72
9
73
5
74
0
42
0.000000001
43
0.0000000001
44
0.0000000001
40
0
40
0
40
0
40
0
40
0.12197310582758418
40
0.22448484418846665
40
0.22448484418846665
40
0.22448484418846665
40
0.22448484418846665
10
111.52607021584387
20
-81.852315892175824
30
0
10
111.78347121399825
20
-82.167254276199074
30
0
10
112.25720370258733
20
-82.746881183185934
30
0
10
112.68715391845417
20
-83.359617310468167
30
0
10
112.88349209084386
20
-83.639425267175852
30
0
0
LINE
5
402
100
AcDbEntity
8
0
100
AcDbLine
10
130.27607021584387
20
-82.574972142175852
30
0
11
132.54169521584387
21
-82.574972142175852
31
0
0
LINE
5
403
100
AcDbEntity
8
0
100
AcDbLine
10
126.30146084084386
20
-84.752706517175852
30
0
11
126.30146084084386
21
-85.856222142175852
31
0
0
LINE
5
404
100
AcDbEntity
8
0
100
AcDbLine
10
115.68622646584387
20
-83.141378392175824
30
0
11
113.54755459084387
21
-83.219503392175824
31
0
0
LINE
5
405
100
AcDbEntity
8
0
100
AcDbLine
10
110.47138271584387
20
-82.545675267175852
30
0
11
111.52607021584387
21
-81.852315892175824
31
0
0
LINE
5
406
100
AcDbEntity
8
0
100
AcDbLine
10
128.54755459084387
20
-82.037862767175852
30
0
11
130.07099209084387
21
-81.852315892175852
31
0
0
LINE
5
407
100
AcDbEntity
8
0
100
AcDbLine
10
118.02997646584386
20
-87.369894017175852
30
0
11
119.30927334084386
21
-87.369894017175852
31
0
0
SPLINE
5
408
100
AcDbEntity
8
0
100
AcDbSpline
70
0
71
3
72
9
73
5
74
0
42
0.000000001
43
0.0000000001
44
0.0000000001
40
0
40
0
40
0
40
0
40
0.033115270733286031
40
0.065826698158102062
40
0.065826698158102062
40
0.065826698158102062
40
0.065826698158102062
10
123.97235927834386
20
-85.856222142175852
30
0
10
123.91335224708017
20
-85.949536389546509
30
0
10
123.79605777989963
20
-86.135026909765756
30
0
10
123.66919204901478
20
-86.314106612871967
30
0
10
123.60614834084386
20
-86.403097142175852
30
0
0
LINE
5
409
100
AcDbEntity
8
0
100
AcDbLine
10
126.47724209084386
20
-84.283956517175852
30
0
11
127.68329677834386
21
-84.283956517175852
31
0
0
LINE
5
410
100
AcDbEntity
8
0
100
AcDbLine
10
114.80243740334386
20
-84.615987767175852
30
0
11
113.08857021584386
21
-84.615987767175852
31
0
0
LINE
5
411
100
AcDbEntity
8
0
100
AcDbLine
10
114.47528896584386
20
-90.084737767175852
30
0
11
116.45282802834386
21
-90.104269017175852
31
0
0
SPLINE
5
412
100
AcDbEntity
8
0
100
AcDbSpline
70
0
71
3
72
9
73
5
74
0
42
0.000000001
43
0.0000000001
44
0.0000000001
40
0
40
0
40
0
40
0
40
0.036626383081561971
40
0.0574263906320936
40
0.0574263906320936
40
0.0574263906320936
40
0.0574263906320936
10
117.60028896584386
20
-88.912862767175852
30
0
10
117.72579131508245
20
-88.916583171485172
30
0
10
117.922566053024
20
-88.922416381679611
30
0
10
118.09102900262816
20
-88.825790597746646
30
0
10
118.15204677834386
20
-88.790792454675852
30
0
0
SPLINE
5
413
100
AcDbEntity
8
0
100
AcDbSpline
70
0
71
3
72
9
73
5
74
0
42
0.000000001
43
0.0000000001
44
0.0000000001
40
0
40
0
40
0
40
0
40
0.060946346521132726
40
0.12976986584535746
40
0.12976986584535746
40
0.12976986584535746
40
0.12976986584535746
10
110.25653896584386
20
-90.055440892175852
30
0
10
110.40723601963741
20
-89.919177977345782
30
0
10
110.7281073691169
20
-89.629040484509119
30
0
10
111.0580932653188
20
-89.349306027135199
30
0
10
111.23310146584386
20
-89.200948704675852
30
0
0
SPLINE
5
414
100
AcDbEntity
8
0
100
AcDbSpline
70
0
71
3
72
9
73
5
74
0
42
0.000000001
43
0.0000000001
44
0.0000000001
40
0
40
0
40
0
40
0
40
0.038164107479822525
40
0.075122192382491002
40
0.075122192382491002
40
0.075122192382491002
40
0.075122192382491002
10
130.07099209084387
20
-81.852315892175852
30
0
10
130.10735642483684
20
-81.974228211669669
30
0
10
130.17893594482234
20
-82.214200303867926
30
0
10
130.24404052496223
20
-82.456008872690418
30
0
10
130.27607021584387
20
-82.574972142175852
30
0
0
LINE
5
415
100
AcDbEntity
8
0
100
AcDbLine
10
124.56806240334387
20
-84.752706517175852
30
0
11
126.30146084084386
21
-84.752706517175852
31
0
0
SPLINE
5
416
100
AcDbEntity
8
0
100
AcDbSpline
70
0
71
3
72
9
73
5
74
0
42
0.000000001
43
0.0000000001
44
0.0000000001
40
0
40
0
40
0
40
0
40
0.094169077392260173
40
0.15374901966111088
40
0.15374901966111088
40
0.15374901966111088
40
0.15374901966111088
10
119.30927334084386
20
-87.369894017175852
30
0
10
119.29315518989443
20
-87.683438685567054
30
0
10
119.26683922741663
20
-88.195360292107893
30
0
10
119.21648257555998
20
-88.705435651269454
30
0
10
119.19696865334386
20
-88.903097142175852
30
0
0
LINE
5
417
100
AcDbEntity
8
0
100
AcDbLine
10
119.52411709084386
20
-84.615987767175852
30
0
11
117.63446865334386
21
-84.615987767175852
31
0
0
SPLINE
5
418
100
AcDbEntity
8
0
100
AcDbSpline
70
0
71
3
72
9
73
5
74
0
42
0.000000001
43
0.0000000001
44
0.0000000001
40
0
40
0
40
0
40
0
40
0.17859833718964327
40
0.3645516146210499
40
0.3645516146210499
40
0.3645516146210499
40
0.3645516146210499
10
115.70575771584386
20
-87.096456517175852
30
0
10
115.57309925684018
20
-87.704010137066518
30
0
10
115.3023192698374
20
-88.944137321816441
30
0
10
114.21789402078475
20
-89.608921047111494
30
0
10
113.66474209084386
20
-89.948019017175852
30
0
0
SPLINE
5
419
100
AcDbEntity
8
0
100
AcDbSpline
70
0
71
3
72
9
73
5
74
0
42
0.000000001
43
0.0000000001
44
0.0000000001
40
0
40
0
40
0
40
0
40
0.028953318035801832
40
0.059374307762369058
40
0.059374307762369058
40
0.059374307762369058
40
0.059374307762369058
10
127.68329677834386
20
-84.283956517175852
30
0
10
127.63442683359793
20
-84.200727661517533
30
0
10
127.53420967934686
20
-84.030050999020432
30
0
10
127.42938665934926
20
-83.862163017081159
30
0
10
127.37567959084386
20
-83.776144017175852
30
0
0
LINE
5
420
100
AcDbEntity
8
0
100
AcDbLine
10
113.08857021584386
20
-83.707784642175852
30
0
11
115.68622646584386
21
-83.707784642175852
31
0
0
SPLINE
5
421
100
AcDbEntity
8
0
100
AcDbSpline
70
0
71
3
72
9
73
5
74
0
42
0.000000001
43
0.0000000001
44
0.0000000001
40
0
40
0
40
0
40
0
40
0.057935449952827435
40
0.10750561719952409
40
0.10750561719952409
40
0.10750561719952409
40
0.10750561719952409
10
116.52607021584386
20
-88.873800267175852
30
0
10
116.71888483405303
20
-88.885172123686459
30
0
10
117.07667362403471
20
-88.906273857665767
30
0
10
117.43504579893609
20
-88.910783431092696
30
0
10
117.60028896584386
20
-88.912862767175852
30
0
0
SPLINE
5
422
100
AcDbEntity
8
0
100
AcDbSpline
70
0
71
3
72
9
73
5
74
0
42
0.000000001
43
0.0000000001
44
0.0000000001
40
0
40
0
40
0
40
0
40
0.058786013197788659
40
0.15162098745653174
40
0.15162098745653174
40
0.15162098745653174
40
0.15162098745653174
10
118.22773037209386
20
-89.813741673425852
30
0
10
118.03181323295684
20
-89.817995697567028
30
0
10
117.52650340703498
20
-89.828967684028811
30
0
10
117.02107957912432
20
-89.824066688876073
30
0
10
116.71161709084386
20
-89.821065892175852
30
0
0
LINE
5
423
100
AcDbEntity
8
0
100
AcDbLine
10
119.52411709084386
20
-83.707784642175852
30
0
11
119.52411709084386
21
-84.615987767175852
31
0
0
LINE
5
424
100
AcDbEntity
8
0
100
AcDbLine
10
113.92353115334386
20
-86.198019017175852
30
0
11
118.38153896584386
21
-86.198019017175852
31
0
0
SPLINE
5
425
100
AcDbEntity
8
0
100
AcDbSpline
70
0
71
3
72
9
73
5
74
0
42
0.000000001
43
0.0000000001
44
0.0000000001
40
0
40
0
40
0
40
0
40
0.044021878828399356
40
0.085448881339054428
40
0.085448881339054428
40
0.085448881339054428
40
0.085448881339054428
10
130.10028896584384
20
-84.283956517175852
30
0
10
130.1810727327055
20
-84.161363412116373
30
0
10
130.33787845505077
20
-83.923403471150465
30
0
10
130.47383038963579
20
-83.672955754243233
30
0
10
130.53974209084384
20
-83.551534642175852
30
0
0
SPLINE
5
426
100
AcDbEntity
8
0
100
AcDbSpline
70
0
71
3
72
9
73
5
74
0
42
0.000000001
43
0.0000000001
44
0.0000000001
40
0
40
0
40
0
40
0
40
0.022788274783440515
40
0.06269051874994723
40
0.06269051874994723
40
0.06269051874994723
40
0.06269051874994723
10
118.15204677834386
20
-88.790792454675852
30
0
10
118.1818241713413
20
-88.720369313775521
30
0
10
118.26374174657552
20
-88.526635330970876
30
0
10
118.27008172317007
20
-88.315089132372137
30
0
10
118.27411709084386
20
-88.180440892175852
30
0
0
LINE
5
427
100
AcDbEntity
8
0
100
AcDbLine
10
119.00653896584387
20
-82.028097142175852
30
0
11
119.15302334084387
21
-82.975362767175852
31
0
0
LINE
5
428
100
AcDbEntity
8
0
100
AcDbLine
10
126.76044521584386
20
-85.660909642175852
30
0
11
132.32685146584384
21
-85.660909642175852
31
0
0
SPLINE
5
429
100
AcDbEntity
8
0
100
AcDbSpline
70
0
71
3
72
9
73
5
74
0
42
0.000000001
43
0.0000000001
44
0.0000000001
40
0
40
0
40
0
40
0
40
0.11628791119124428
40
0.25077510738357472
40
0.25077510738357472
40
0.25077510738357472
40
0.25077510738357472
10
117.63446865334386
20
-84.615987767175852
30
0
10
117.9731226595143
20
-84.808099465430132
30
0
10
118.70343068459869
20
-85.222388717561671
30
0
10
119.51732461529951
20
-85.431551211051442
30
0
10
119.95380459084386
20
-85.543722142175852
30
0
0
SPLINE
5
430
100
AcDbEntity
8
0
100
AcDbSpline
70
0
71
3
72
9
73
5
74
0
42
0.000000001
43
0.0000000001
44
0.0000000001
40
0
40
0
40
0
40
0
40
0.14868489780209437
40
0.27399142627921369
40
0.27399142627921369
40
0.27399142627921369
40
0.27399142627921369
10
112.83466396584386
20
-89.030050267175852
30
0
10
113.30686823478203
20
-88.81097184878189
30
0
10
114.17703005386409
20
-88.407261658910102
30
0
10
114.48555579215393
20
-87.507809592903243
30
0
10
114.62665615334386
20
-87.096456517175852
30
0
0
LINE
5
431
100
AcDbEntity
8
0
100
AcDbLine
10
110.31513271584386
20
-85.280050267175852
30
0
11
112.45380459084386
21
-85.280050267175852
31
0
0
LINE
5
432
100
AcDbEntity
8
0
100
AcDbLine
10
123.23505459084386
20
-86.803487767175852
30
0
11
124.20185146584386
21
-86.803487767175852
31
0
0
SPLINE
5
433
100
AcDbEntity
8
0
100
AcDbSpline
70
0
71
3
72
9
73
5
74
0
42
0.000000001
43
0.0000000001
44
0.0000000001
40
0
40
0
40
0
40
0
40
0.045652216083618691
40
0.095330671608891832
40
0.095330671608891832
40
0.095330671608891832
40
0.095330671608891832
10
132.42206630959384
20
-91.163839329675852
30
0
10
132.28747706176645
20
-91.239282563832219
30
0
10
132.00642863767197
20
-91.396822652736091
30
0
10
131.68421543992918
20
-91.413787643290647
30
0
10
131.51630459084384
20
-91.422628392175852
30
0
0
LINE
5
434
100
AcDbEntity
8
0
100
AcDbLine
10
131.51630459084384
20
-91.422628392175866
30
0
11
130.93036709084384
21
-91.422628392175852
31
0
0
SPLINE
5
435
100
AcDbEntity
8
0
100
AcDbSpline
70
0
71
3
72
9
73
5
74
0
42
0.000000001
43
0.0000000001
44
0.0000000001
40
0
40
0
40
0
40
0
40
0.072970279783758335
40
0.14365352341135382
40
0.14365352341135382
40
0.14365352341135382
40
0.14365352341135382
10
126.44794521584386
20
-88.346456517175852
30
0
10
126.46181454821951
20
-88.589537137926953
30
0
10
126.48911852004245
20
-89.068079741126468
30
0
10
126.57279076863391
20
-89.54002294936754
30
0
10
126.61396084084386
20
-89.772237767175852
30
0
0
LINE
5
436
100
AcDbEntity
8
0
100
AcDbLine
10
125.43232021584386
20
-87.907003392175852
30
0
11
125.43232021584386
21
-89.186300267175852
31
0
0
SPLINE
5
437
100
AcDbEntity
8
0
100
AcDbSpline
70
0
71
3
72
9
73
5
74
0
42
0.000000001
43
0.0000000001
44
0.0000000001
40
0
40
0
40
0
40
0
40
0.10025869301969852
40
0.15951792078817367
40
0.15951792078817367
40
0.15951792078817367
40
0.15951792078817367
10
132.95185146584384
20
-89.684347142175852
30
0
10
132.91617631094849
20
-90.025285746580096
30
0
10
132.85941488347223
20
-90.567740626580417
30
0
10
132.54052904176064
20
-91.002376630978702
30
0
10
132.42206630959384
20
-91.163839329675852
30
0
0
LINE
5
438
100
AcDbEntity
8
0
100
AcDbLine
10
124.20185146584386
20
-86.803487767175852
30
0
11
124.20185146584386
21
-85.856222142175852
31
0
0
SPLINE
5
439
100
AcDbEntity
8
0
100
AcDbSpline
70
0
71
3
72
9
73
5
74
0
42
0.000000001
43
0.0000000001
44
0.0000000001
40
0
40
0
40
0
40
0
40
0.031830404538008679
40
0.089271588520824674
40
0.089271588520824674
40
0.089271588520824674
40
0.089271588520824674
10
131.68720302834384
20
-90.153097142175852
30
0
10
131.71735598051688
20
-90.051090324400818
30
0
10
131.80192298424015
20
-89.765001888048829
30
0
10
131.81827986771086
20
-89.466353879989526
30
0
10
131.82880459084384
20
-89.274190892175852
30
0
0
SPLINE
5
440
100
AcDbEntity
8
0
100
AcDbSpline
70
0
71
3
72
9
73
5
74
0
42
0.000000001
43
0.0000000001
44
0.0000000001
40
0
40
0
40
0
40
0
40
0.089286068506900587
40
0.16295830855189358
40
0.16295830855189358
40
0.16295830855189358
40
0.16295830855189358
10
96.565208468706842
20
-88.611748472606905
30
0
10
96.529670863908308
20
-88.907613535213059
30
0
10
96.464810263987246
20
-89.447604498732431
30
0
10
96.332194375963113
20
-89.974916938185814
30
0
10
96.272239718706842
20
-90.213310972606877
30
0
0
LINE
5
441
100
AcDbEntity
8
0
100
AcDbLine
10
93.791770968706842
20
-89.949639097606877
30
0
11
94.426536593706842
21
-89.949639097606877
31
0
0
SPLINE
5
442
100
AcDbEntity
8
0
100
AcDbSpline
70
0
71
3
72
9
73
5
74
0
42
0.000000001
43
0.0000000001
44
0.0000000001
40
0
40
0
40
0
40
0
40
0.089088332462074454
40
0.14977397724940023
40
0.14977397724940023
40
0.14977397724940023
40
0.14977397724940023
10
79.079856906206842
20
-87.537529722606905
30
0
10
78.783645175482519
20
-87.559946483559571
30
0
10
78.285658426910317
20
-87.597633208096255
30
0
10
77.791018173588782
20
-87.666056052048759
30
0
10
77.590599093706842
20
-87.693779722606905
30
0
0
SPLINE
5
443
100
AcDbEntity
8
0
100
AcDbSpline
70
0
71
3
72
9
73
5
74
0
42
0.000000001
43
0.0000000001
44
0.0000000001
40
0
40
0
40
0
40
0
40
0.087899101696263138
40
0.20458529548103277
40
0.20458529548103277
40
0.20458529548103277
40
0.20458529548103277
10
96.272239718706842
20
-90.213310972606877
30
0
10
96.124283658689066
20
-90.488226648431365
30
0
10
95.779915699599513
20
-91.128093310155293
30
0
10
95.036241548570871
20
-91.148778628285044
30
0
10
94.612083468706842
20
-91.160576597606877
30
0
0
SPLINE
5
444
100
AcDbEntity
8
0
100
AcDbSpline
70
0
71
3
72
9
73
5
74
0
42
0.000000001
43
0.0000000001
44
0.0000000001
40
0
40
0
40
0
40
0
40
0.10141361768199021
40
0.21085317600443487
40
0.21085317600443487
40
0.21085317600443487
40
0.21085317600443487
10
93.176536593706842
20
-91.160576597606877
30
0
10
92.806404308067485
20
-91.094017709307565
30
0
10
92.036847223400983
20
-90.955632418357339
30
0
10
91.951370502333816
20
-90.171224882111076
30
0
10
91.907005343706842
20
-89.764092222606877
30
0
0
SPLINE
5
445
100
AcDbEntity
8
0
100
AcDbSpline
70
0
71
3
72
9
73
5
74
0
42
0.000000001
43
0.0000000001
44
0.0000000001
40
0
40
0
40
0
40
0
40
0.064004434461745086
40
0.13128145810510222
40
0.13128145810510222
40
0.13128145810510222
40
0.13128145810510222
10
75.657005343706842
20
-91.326592222606877
30
0
10
75.455808931172541
20
-91.255466434627721
30
0
10
75.043128800098089
20
-91.10957814995956
30
0
10
74.622541302880535
20
-90.988334569916276
30
0
10
74.407005343706842
20
-90.926201597606877
30
0
0
SPLINE
5
446
100
AcDbEntity
8
0
100
AcDbSpline
70
0
71
3
72
9
73
5
74
0
42
0.000000001
43
0.0000000001
44
0.0000000001
40
0
40
0
40
0
40
0
40
0.17149241087556918
40
0.34510712471893856
40
0.34510712471893856
40
0.34510712471893856
40
0.34510712471893856
10
94.612083468706842
20
-82.137139097606905
30
0
10
94.926088236869163
20
-82.620720659239566
30
0
10
95.557983736706561
20
-83.593868342277418
30
0
10
96.487977166589502
20
-84.287959363532664
30
0
10
96.955833468706842
20
-84.637139097606905
30
0
0
LINE
5
447
100
AcDbEntity
8
0
100
AcDbLine
10
92.043724093706842
20
-85.486748472606919
30
0
11
93.205833468706842
21
-85.486748472606905
31
0
0
SPLINE
5
448
100
AcDbEntity
8
0
100
AcDbSpline
70
0
71
3
72
9
73
5
74
0
42
0.000000001
43
0.0000000001
44
0.0000000001
40
0
40
0
40
0
40
0
40
0.061941512608200765
40
0.14261955434671972
40
0.14261955434671972
40
0.14261955434671972
40
0.14261955434671972
10
95.090599093706842
20
-89.559014097606877
30
0
10
95.123042397684117
20
-89.355031400874552
30
0
10
95.197742697369137
20
-88.885363805147193
30
0
10
95.235344093863645
20
-88.411217129385705
30
0
10
95.256614718706842
20
-88.142998472606905
30
0
0
LINE
5
449
100
AcDbEntity
8
0
100
AcDbLine
10
78.449974093706842
20
-91.414482847606877
30
0
11
78.020286593706842
21
-90.506279722606877
31
0
0
SPLINE
5
450
100
AcDbEntity
8
0
100
AcDbSpline
70
0
71
3
72
9
73
5
74
0
42
0.000000001
43
0.0000000001
44
0.0000000001
40
0
40
0
40
0
40
0
40
0.13983994803774674
40
0.32907176999618859
40
0.32907176999618859
40
0.32907176999618859
40
0.32907176999618859
10
77.239036593706842
20
-86.707451597606905
30
0
10
77.644772894878002
20
-86.471757040471715
30
0
10
78.599552731767375
20
-85.917119927234211
30
0
10
79.316812626541918
20
-85.073457021027167
30
0
10
79.729270968706842
20
-84.588310972606905
30
0
0
SPLINE
5
451
100
AcDbEntity
8
0
100
AcDbSpline
70
0
71
3
72
9
73
5
74
0
42
0.000000001
43
0.0000000001
44
0.0000000001
40
0
40
0
40
0
40
0
40
0.046448355431490132
40
0.082491979521256892
40
0.082491979521256892
40
0.082491979521256892
40
0.082491979521256892
10
94.426536593706842
20
-89.949639097606877
30
0
10
94.595127107123574
20
-89.943352494317637
30
0
10
94.894542771059506
20
-89.93218752744248
30
0
10
95.030983415559106
20
-89.672486526274156
30
0
10
95.090599093706842
20
-89.559014097606877
30
0
0
LINE
5
452
100
AcDbEntity
8
0
100
AcDbLine
10
93.205833468706842
20
-85.486748472606905
30
0
11
93.205833468706842
21
-86.980889097606905
31
0
0
LINE
5
453
100
AcDbEntity
8
0
100
AcDbLine
10
94.983177218706842
20
-85.691826597606877
30
0
11
95.949974093706842
21
-86.600029722606905
31
0
0
LINE
5
454
100
AcDbEntity
8
0
100
AcDbLine
10
93.196067843706842
20
-81.795342222606905
30
0
11
94.826927218706842
21
-81.795342222606905
31
0
0
LWPOLYLINE
5
455
100
AcDbEntity
8
0
100
AcDbPolyline
90
4
70
1
43
0.0
10
103.37701755046345
20
-79.337832376095065
10
103.37701755046345
20
-27.79764299893997
10
67.73313592006761
20
-27.79764299893997
10
67.73313592006761
20
-79.337832376095065
0
SPLINE
5
456
100
AcDbEntity
8
0
100
AcDbSpline
70
0
71
3
72
9
73
5
74
0
42
0.000000001
43
0.0000000001
44
0.0000000001
40
0
40
0
40
0
40
0
40
0.14752640439353945
40
0.29096229406697904
40
0.29096229406697904
40
0.29096229406697904
40
0.29096229406697904
10
93.860130343706842
20
-83.221123472606905
30
0
10
93.589160033817137
20
-83.632966870909513
30
0
10
93.054732699851698
20
-84.445234345732587
30
0
10
92.377553571632447
20
-85.14284623961565
30
0
10
92.043724093706842
20
-85.486748472606905
30
0
0
SPLINE
5
457
100
AcDbEntity
8
0
100
AcDbSpline
70
0
71
3
72
9
73
5
74
0
42
0.000000001
43
0.0000000001
44
0.0000000001
40
0
40
0
40
0
40
0
40
0.067306696706262367
40
0.1376344538399995
40
0.1376344538399995
40
0.1376344538399995
40
0.1376344538399995
10
76.994895968706842
20
-90.320732847606877
30
0
10
76.872945784452781
20
-90.132354130717943
30
0
10
76.623571683109773
20
-89.747141320063335
30
0
10
76.352272866114873
20
-89.377035266855273
30
0
10
76.213645968706842
20
-89.187920347606877
30
0
0
LINE
5
458
100
AcDbEntity
8
0
100
AcDbLine
10
83.088645968706842
20
-87.635185972606905
30
0
11
83.869895968706842
21
-88.504326597606905
31
0
0
SPLINE
5
459
100
AcDbEntity
8
0
100
AcDbSpline
70
0
71
3
72
9
73
5
74
0
42
0.000000001
43
0.0000000001
44
0.0000000001
40
0
40
0
40
0
40
0
40
0.16282203016742858
40
0.32637602407801086
40
0.32637602407801086
40
0.32637602407801086
40
0.32637602407801086
10
95.949974093706842
20
-86.600029722606905
30
0
10
95.517703284902154
20
-86.929891985805554
30
0
10
94.651218401022618
20
-87.591099402550327
30
0
10
93.688348256000253
20
-88.10187944033575
30
0
10
93.205833468706842
20
-88.357842222606905
30
0
0
SPLINE
5
460
100
AcDbEntity
8
0
100
AcDbSpline
70
0
71
3
72
9
73
5
74
0
42
0.000000001
43
0.0000000001
44
0.0000000001
40
0
40
0
40
0
40
0
40
0.1122770856026109
40
0.21987858669962199
40
0.21987858669962199
40
0.21987858669962199
40
0.21987858669962199
10
93.205833468706842
20
-86.980889097606905
30
0
10
93.526015511156515
20
-86.785766243475535
30
0
10
94.153046170195978
20
-86.403646088067745
30
0
10
94.71041759070016
20
-85.925712102521203
30
0
10
94.983177218706842
20
-85.691826597606905
30
0
0
LINE
5
461
100
AcDbEntity
8
0
100
AcDbLine
10
94.612083468706842
20
-91.160576597606877
30
0
11
93.176536593706842
21
-91.160576597606877
31
0
0
LINE
5
462
100
AcDbEntity
8
0
100
AcDbLine
10
77.590599093706842
20
-87.693779722606919
30
0
11
77.239036593706842
21
-86.707451597606905
31
0
0
LINE
5
463
100
AcDbEntity
8
0
100
AcDbLine
10
93.205833468706842
20
-88.357842222606905
30
0
11
93.205833468706842
21
-89.373467222606877
31
0
0
LINE
5
464
100
AcDbEntity
8
0
100
AcDbLine
10
96.955833468706842
20
-84.637139097606905
30
0
11
96.301536593706842
21
-85.945732847606905
31
0
0
LINE
5
465
100
AcDbEntity
8
0
100
AcDbLine
10
79.485130343706842
20
-88.645928160106905
30
0
11
79.485130343706842
21
-89.930107847606877
31
0
0
SPLINE
5
466
100
AcDbEntity
8
0
100
AcDbSpline
70
0
71
3
72
9
73
5
74
0
42
0.000000001
43
0.0000000001
44
0.0000000001
40
0
40
0
40
0
40
0
40
0.12530670685350687
40
0.26242421963284157
40
0.26242421963284157
40
0.26242421963284157
40
0.26242421963284157
10
81.399192843706842
20
-85.301201597606905
30
0
10
81.732840051051241
20
-85.552757461482969
30
0
10
82.431582442569038
20
-86.079579631894944
30
0
10
83.087646978576799
20
-86.658743061833547
30
0
10
83.430442843706842
20
-86.961357847606905
30
0
0
SPLINE
5
467
100
AcDbEntity
8
0
100
AcDbSpline
70
0
71
3
72
9
73
5
74
0
42
0.000000001
43
0.0000000001
44
0.0000000001
40
0
40
0
40
0
40
0
40
0.18612292364536623
40
0.38712050628943628
40
0.38712050628943628
40
0.38712050628943628
40
0.38712050628943628
10
74.407005343706842
20
-90.926201597606877
30
0
10
74.58125408288538
20
-90.330562832572497
30
0
10
74.943677253604676
20
-89.091682764660547
30
0
10
75.220372909844286
20
-87.830844077446642
30
0
10
75.364036593706842
20
-87.176201597606905
30
0
0
SPLINE
5
468
100
AcDbEntity
8
0
100
AcDbSpline
70
0
71
3
72
9
73
5
74
0
42
0.000000001
43
0.0000000001
44
0.0000000001
40
0
40
0
40
0
40
0
40
0.20273787949313288
40
0.40537695139212032
40
0.40537695139212032
40
0.40537695139212032
40
0.40537695139212032
10
90.637474093706842
20
-84.900810972606905
30
0
10
91.159084709653541
20
-84.461433654275879
30
0
10
92.202051726152376
20
-83.582893155276992
30
0
10
92.864782983114537
20
-82.391095702930926
30
0
10
93.196067843706842
20
-81.795342222606905
30
0
0
LINE
5
469
100
AcDbEntity
8
0
100
AcDbLine
10
83.430442843706842
20
-86.961357847606877
30
0
11
82.580833468706842
21
-87.723076597606905
31
0
0
SPLINE
5
470
100
AcDbEntity
8
0
100
AcDbSpline
70
0
71
3
72
9
73
5
74
0
42
0.000000001
43
0.0000000001
44
0.0000000001
40
0
40
0
40
0
40
0
40
0.040742966963570888
40
0.080831125220518565
40
0.080831125220518565
40
0.080831125220518565
40
0.080831125220518565
10
80.071067843706842
20
-88.089287535106905
30
0
10
79.975040958388618
20
-88.185361106823336
30
0
10
79.784530502961218
20
-88.375964184717446
30
0
10
79.584389954094632
20
-88.556427476197328
30
0
10
79.485130343706842
20
-88.645928160106905
30
0
0
LINE
5
471
100
AcDbEntity
8
0
100
AcDbLine
10
94.826927218706842
20
-81.795342222606905
30
0
11
94.612083468706842
21
-82.137139097606905
31
0
0
SPLINE
5
472
100
AcDbEntity
8
0
100
AcDbSpline
70
0
71
3
72
9
73
5
74
0
42
0.000000001
43
0.0000000001
44
0.0000000001
40
0
40
0
40
0
40
0
40
0.056406523896712087
40
0.13901845903191049
40
0.13901845903191049
40
0.13901845903191049
40
0.13901845903191049
10
95.256614718706842
20
-88.142998472606905
30
0
10
95.431984459468453
20
-88.210868307999931
30
0
10
95.864197427708589
20
-88.37813902917334
30
0
10
96.303909115494761
20
-88.524671389788779
30
0
10
96.565208468706842
20
-88.611748472606905
30
0
0
SPLINE
5
473
100
AcDbEntity
8
0
100
AcDbSpline
70
0
71
3
72
9
73
5
74
0
42
0.000000001
43
0.0000000001
44
0.0000000001
40
0
40
0
40
0
40
0
40
0.06757768840318007
40
0.14937436242996166
40
0.14937436242996166
40
0.14937436242996166
40
0.14937436242996166
10
83.869895968706842
20
-88.504326597606905
30
0
10
83.683336580104211
20
-88.630725975395819
30
0
10
83.270963940756459
20
-88.910120357105313
30
0
10
82.837646978670534
20
-89.155881696501993
30
0
10
82.600364718706842
20
-89.290459410106877
30
0
0
SPLINE
5
474
100
AcDbEntity
8
0
100
AcDbSpline
70
0
71
3
72
9
73
5
74
0
42
0.000000001
43
0.0000000001
44
0.0000000001
40
0
40
0
40
0
40
0
40
0.074433768158835706
40
0.15164794496247985
40
0.15164794496247985
40
0.15164794496247985
40
0.15164794496247985
10
82.600364718706842
20
-89.290459410106877
30
0
10
82.811716286951139
20
-89.421629354260048
30
0
10
83.242314277374703
20
-89.688868981699301
30
0
10
83.716398436046404
20
-89.868130577418768
30
0
10
83.957786593706842
20
-89.959404722606877
30
0
0
SPLINE
5
475
100
AcDbEntity
8
0
100
AcDbSpline
70
0
71
3
72
9
73
5
74
0
42
0.000000001
43
0.0000000001
44
0.0000000001
40
0
40
0
40
0
40
0
40
0.072524560517140305
40
0.14267283675199816
40
0.14267283675199816
40
0.14267283675199816
40
0.14267283675199816
10
80.891380343706842
20
-87.425225035106905
30
0
10
81.016948895491012
20
-87.632532457456108
30
0
10
81.263971715927923
20
-88.040354825704952
30
0
10
81.583759121806423
20
-88.393950148335776
30
0
10
81.740989718706842
20
-88.567803160106905
30
0
0
SPLINE
5
476
100
AcDbEntity
8
0
100
AcDbSpline
70
0
71
3
72
9
73
5
74
0
42
0.000000001
43
0.0000000001
44
0.0000000001
40
0
40
0
40
0
40
0
40
0.062017966128462984
40
0.13936123832652153
40
0.13936123832652153
40
0.13936123832652153
40
0.13936123832652153
10
91.389427218706842
20
-86.072685972606905
30
0
10
91.289358277756492
20
-85.891563843630763
30
0
10
91.064492284892793
20
-85.484562360702938
30
0
10
90.789879708682122
20
-85.109155701547763
30
0
10
90.637474093706842
20
-84.900810972606905
30
0
0
LINE
5
477
100
AcDbEntity
8
0
100
AcDbLine
10
79.485130343706842
20
-89.930107847606877
30
0
11
80.803489718706842
21
-89.549248472606877
31
0
0
LINE
5
478
100
AcDbEntity
8
0
100
AcDbLine
10
83.879661593706842
20
-84.920342222606919
30
0
11
83.147239718706842
21
-85.896904722606905
31
0
0
SPLINE
5
479
100
AcDbEntity
8
0
100
AcDbSpline
70
0
71
3
72
9
73
5
74
0
42
0.000000001
43
0.0000000001
44
0.0000000001
40
0
40
0
40
0
40
0
40
0.032763999334708596
40
0.066854633881905962
40
0.066854633881905962
40
0.066854633881905962
40
0.066854633881905962
10
78.020286593706842
20
-90.506279722606877
30
0
10
78.09718240680948
20
-90.424122157910602
30
0
10
78.254087593490468
20
-90.256480416367111
30
0
10
78.273870654721549
20
-90.02739317412744
30
0
10
78.283958468706842
20
-89.910576597606877
30
0
0
SPLINE
5
480
100
AcDbEntity
8
0
100
AcDbSpline
70
0
71
3
72
9
73
5
74
0
42
0.000000001
43
0.0000000001
44
0.0000000001
40
0
40
0
40
0
40
0
40
0.11485434762234788
40
0.2197464911529507
40
0.2197464911529507
40
0.2197464911529507
40
0.2197464911529507
10
82.033958468706842
20
-83.728935972606905
30
0
10
82.362905511937257
20
-83.925093857823441
30
0
10
82.992267482306019
20
-84.300395340794267
30
0
10
83.592940727621382
20
-84.720034710311495
30
0
10
83.879661593706842
20
-84.920342222606905
30
0
0
SPLINE
5
481
100
AcDbEntity
8
0
100
AcDbSpline
70
0
71
3
72
9
73
5
74
0
42
0.000000001
43
0.0000000001
44
0.0000000001
40
0
40
0
40
0
40
0
40
0.12073346346213246
40
0.23414834635793935
40
0.23414834635793935
40
0.23414834635793935
40
0.23414834635793935
10
76.614036593706842
20
-85.047295347606905
30
0
10
76.968172850709806
20
-84.853669560765354
30
0
10
77.654978451947656
20
-84.478155130042325
30
0
10
78.253055706272193
20
-83.973416964414582
30
0
10
78.542747531206842
20
-83.728935972606905
30
0
0
SPLINE
5
482
100
AcDbEntity
8
0
100
AcDbSpline
70
0
71
3
72
9
73
5
74
0
42
0.000000001
43
0.0000000001
44
0.0000000001
40
0
40
0
40
0
40
0
40
0.045628178106950745
40
0.091873980718493675
40
0.091873980718493675
40
0.091873980718493675
40
0.091873980718493675
10
93.205833468706842
20
-89.373467222606877
30
0
10
93.230897451368762
20
-89.541515197429533
30
0
10
93.28136468357809
20
-89.879885849933999
30
0
10
93.62087475279435
20
-89.926284044148048
30
0
10
93.791770968706842
20
-89.949639097606877
30
0
0
LINE
5
483
100
AcDbEntity
8
0
100
AcDbLine
10
89.221458468706842
20
-84.744560972606905
30
0
11
90.393333468706842
21
-84.744560972606905
31
0
0
LINE
5
484
100
AcDbEntity
8
0
100
AcDbLine
10
81.213645968706842
20
-86.473076597606905
30
0
11
80.617942843706842
21
-85.984795347606905
31
0
0
SPLINE
5
485
100
AcDbEntity
8
0
100
AcDbSpline
70
0
71
3
72
9
73
5
74
0
42
0.000000001
43
0.0000000001
44
0.0000000001
40
0
40
0
40
0
40
0
40
0.19103173186061848
40
0.36815958309908603
40
0.36815958309908603
40
0.36815958309908603
40
0.36815958309908603
10
96.301536593706842
20
-85.945732847606905
30
0
10
95.800205416569071
20
-85.544721669477823
30
0
10
94.83403149681277
20
-84.771886147755197
30
0
10
94.176486466561357
20
-83.724863781171948
30
0
10
93.860130343706842
20
-83.221123472606905
30
0
0
SPLINE
5
486
100
AcDbEntity
8
0
100
AcDbSpline
70
0
71
3
72
9
73
5
74
0
42
0.000000001
43
0.0000000001
44
0.0000000001
40
0
40
0
40
0
40
0
40
0.2188673045484702
40
0.44001117776318988
40
0.44001117776318988
40
0.44001117776318988
40
0.44001117776318988
10
83.196067843706842
20
-91.101982847606877
30
0
10
82.553466100742625
20
-90.731789701749761
30
0
10
81.261578532895555
20
-89.98755281152765
30
0
10
80.469271176678902
20
-88.724221405756111
30
0
10
80.071067843706842
20
-88.089287535106905
30
0
0
LINE
5
487
100
AcDbEntity
8
0
100
AcDbLine
10
80.803489718706842
20
-89.549248472606877
30
0
11
80.774192843706842
21
-90.779717222606877
31
0
0
SPLINE
5
488
100
AcDbEntity
8
0
100
AcDbSpline
70
0
71
3
72
9
73
5
74
0
42
0.000000001
43
0.0000000001
44
0.0000000001
40
0
40
0
40
0
40
0
40
0.11652082910281375
40
0.23127263664007586
40
0.23127263664007586
40
0.23127263664007586
40
0.23127263664007586
10
80.891380343706842
20
-85.057060972606905
30
0
10
80.604851547991586
20
-85.31940267866689
30
0
10
80.036144042487109
20
-85.840103213741301
30
0
10
79.43941551971119
20
-86.328434730993507
30
0
10
79.143333468706842
20
-86.570732847606905
30
0
0
LINE
5
489
100
AcDbEntity
8
0
100
AcDbLine
10
90.393333468706842
20
-89.637139097606877
30
0
11
90.393333468706842
21
-91.385185972606877
31
0
0
LINE
5
490
100
AcDbEntity
8
0
100
AcDbLine
10
89.221458468706842
20
-86.443779722606905
30
0
11
89.221458468706842
21
-84.744560972606905
31
0
0
LINE
5
491
100
AcDbEntity
8
0
100
AcDbLine
10
76.584739718706842
20
-87.635185972606905
30
0
11
75.657005343706842
21
-91.326592222606877
31
0
0
LINE
5
492
100
AcDbEntity
8
0
100
AcDbLine
10
79.143333468706842
20
-86.570732847606905
30
0
11
81.213645968706842
21
-86.473076597606905
31
0
0
SPLINE
5
493
100
AcDbEntity
8
0
100
AcDbSpline
70
0
71
3
72
9
73
5
74
0
42
0.000000001
43
0.0000000001
44
0.0000000001
40
0
40
0
40
0
40
0
40
0.074997281978947325
40
0.14837484242146518
40
0.14837484242146518
40
0.14837484242146518
40
0.14837484242146518
10
78.283958468706842
20
-89.588310972606877
30
0
10
78.074002320639437
20
-89.724456512214914
30
0
10
77.658624462097023
20
-89.993807246704165
30
0
10
77.214522800308885
20
-90.212553622802005
30
0
10
76.994895968706842
20
-90.320732847606877
30
0
0
SPLINE
5
494
100
AcDbEntity
8
0
100
AcDbSpline
70
0
71
3
72
9
73
5
74
0
42
0.000000001
43
0.0000000001
44
0.0000000001
40
0
40
0
40
0
40
0
40
0.025377710432544848
40
0.051795711599836987
40
0.051795711599836987
40
0.051795711599836987
40
0.051795711599836987
10
82.580833468706842
20
-87.723076597606905
30
0
10
82.52079722592056
20
-87.663478980029765
30
0
10
82.398263716636464
20
-87.541840701420327
30
0
10
82.273416879925293
20
-87.422577661539265
30
0
10
82.209739718706842
20
-87.361748472606905
30
0
0
SPLINE
5
495
100
AcDbEntity
8
0
100
AcDbSpline
70
0
71
3
72
9
73
5
74
0
42
0.000000001
43
0.0000000001
44
0.0000000001
40
0
40
0
40
0
40
0
40
0.1348208991322728
40
0.27128699170809401
40
0.27128699170809401
40
0.27128699170809401
40
0.27128699170809401
10
83.147239718706842
20
-85.896904722606905
30
0
10
82.789207192824605
20
-85.624800010056092
30
0
10
82.068773139162431
20
-85.07727014359908
30
0
10
81.298422680544149
20
-84.602517476651883
30
0
10
80.910911593706842
20
-84.363701597606905
30
0
0
SPLINE
5
496
100
AcDbEntity
8
0
100
AcDbSpline
70
0
71
3
72
9
73
5
74
0
42
0.000000001
43
0.0000000001
44
0.0000000001
40
0
40
0
40
0
40
0
40
0.11496431418983846
40
0.19962339823293951
40
0.19962339823293951
40
0.19962339823293951
40
0.19962339823293951
10
89.221458468706842
20
-89.695732847606877
30
0
10
88.838937950205249
20
-89.718809773004693
30
0
10
88.174731441122589
20
-89.758880418414435
30
0
10
87.51082830193694
20
-89.803684732250673
30
0
10
87.229270968706842
20
-89.822685972606877
30
0
0
SPLINE
5
497
100
AcDbEntity
8
0
100
AcDbSpline
70
0
71
3
72
9
73
5
74
0
42
0.000000001
43
0.0000000001
44
0.0000000001
40
0
40
0
40
0
40
0
40
0.098617401429852189
40
0.19971550068077609
40
0.19971550068077609
40
0.19971550068077609
40
0.19971550068077609
10
75.657005343706842
20
-86.668389097606905
30
0
10
75.418649981861989
20
-86.441992251337396
30
0
10
74.935943484422509
20
-85.983503598729527
30
0
10
74.44213345477192
20
-85.536994733725209
30
0
10
74.192161593706842
20
-85.310967222606905
30
0
0
SPLINE
5
498
100
AcDbEntity
8
0
100
AcDbSpline
70
0
71
3
72
9
73
5
74
0
42
0.000000001
43
0.0000000001
44
0.0000000001
40
0
40
0
40
0
40
0
40
0.095416203349181036
40
0.19738401314530807
40
0.19738401314530807
40
0.19738401314530807
40
0.19738401314530807
10
74.992942843706842
20
-84.383232847606905
30
0
10
75.246930604729471
20
-84.574771961102741
30
0
10
75.772345804671701
20
-84.971001925920604
30
0
10
76.275819203494819
20
-85.394779670776472
30
0
10
76.535911593706842
20
-85.613701597606905
30
0
0
SPLINE
5
499
100
AcDbEntity
8
0
100
AcDbSpline
70
0
71
3
72
9
73
5
74
0
42
0.000000001
43
0.0000000001
44
0.0000000001
40
0
40
0
40
0
40
0
40
0.081332271444575097
40
0.16397531547971517
40
0.16397531547971517
40
0.16397531547971517
40
0.16397531547971517
10
81.740989718706842
20
-88.567803160106905
30
0
10
81.971339584837352
20
-88.424505177878501
30
0
10
82.435751697011113
20
-88.135599784900265
30
0
10
82.869857837311486
20
-87.802877140476596
30
0
10
83.088645968706842
20
-87.635185972606905
30
0
0
SPLINE
5
500
100
AcDbEntity
8
0
100
AcDbSpline
70
0
71
3
72
9
73
5
74
0
42
0.000000001
43
0.0000000001
44
0.0000000001
40
0
40
0
40
0
40
0
40
0.058318445031428856
40
0.1195096517917963
40
0.1195096517917963
40
0.1195096517917963
40
0.1195096517917963
10
88.186302218706842
20
-82.976982847606905
30
0
10
88.22581216774833
20
-82.78664270372623
30
0
10
88.306778322619522
20
-82.396586276382848
30
0
10
88.382107336105832
20
-82.005401742829761
30
0
10
88.420677218706842
20
-81.805107847606905
30
0
0
SPLINE
5
501
100
AcDbEntity
8
0
100
AcDbSpline
70
0
71
3
72
9
73
5
74
0
42
0.000000001
43
0.0000000001
44
0.0000000001
40
0
40
0
40
0
40
0
40
0.16581754648442534
40
0.33206409178124574
40
0.33206409178124574
40
0.33206409178124574
40
0.33206409178124574
10
76.213645968706842
20
-89.187920347606877
30
0
10
76.727635337563598
20
-88.977319636726719
30
0
10
77.756943855107409
20
-88.555573354324196
30
0
10
78.638506254406678
20
-87.877169746602448
30
0
10
79.079856906206842
20
-87.537529722606905
30
0
0
LINE
5
502
100
AcDbEntity
8
0
100
AcDbLine
10
91.389427218706842
20
-84.139092222606905
30
0
11
89.192161593706842
21
-84.139092222606905
31
0
0
LINE
5
503
100
AcDbEntity
8
0
100
AcDbLine
10
78.283958468706842
20
-89.910576597606877
30
0
11
78.283958468706842
21
-89.588310972606877
31
0
0
LINE
5
504
100
AcDbEntity
8
0
100
AcDbLine
10
88.420677218706842
20
-81.805107847606919
30
0
11
89.739036593706842
21
-81.892998472606905
31
0
0
LINE
5
505
100
AcDbEntity
8
0
100
AcDbLine
10
79.729270968706842
20
-84.588310972606905
30
0
11
80.891380343706842
21
-85.057060972606905
31
0
0
LINE
5
506
100
AcDbEntity
8
0
100
AcDbLine
10
83.762474093706842
20
-83.728935972606905
30
0
11
82.033958468706842
21
-83.728935972606905
31
0
0
SPLINE
5
507
100
AcDbEntity
8
0
100
AcDbSpline
70
0
71
3
72
9
73
5
74
0
42
0.000000001
43
0.0000000001
44
0.0000000001
40
0
40
0
40
0
40
0
40
0.056855419267680715
40
0.11133380101035939
40
0.11133380101035939
40
0.11133380101035939
40
0.11133380101035939
10
89.739036593706842
20
-81.892998472606905
30
0
10
89.69719034967531
20
-82.077842031732587
30
0
10
89.615247388634032
20
-82.439801125426953
30
0
10
89.527880918043905
20
-82.800489236340127
30
0
10
89.485130343706842
20
-82.976982847606905
30
0
0
SPLINE
5
508
100
AcDbEntity
8
0
100
AcDbSpline
70
0
71
3
72
9
73
5
74
0
42
0.000000001
43
0.0000000001
44
0.0000000001
40
0
40
0
40
0
40
0
40
0.14276382685302655
40
0.24105794724766916
40
0.24105794724766916
40
0.24105794724766916
40
0.24105794724766916
10
80.774192843706842
20
-90.779717222606877
30
0
10
80.309477707394279
20
-90.883981489205681
30
0
10
79.524802210219846
20
-91.060032598451073
30
0
10
78.761300572493553
20
-91.311815503610774
30
0
10
78.449974093706842
20
-91.414482847606877
30
0
0
LINE
5
509
100
AcDbEntity
8
0
100
AcDbLine
10
81.452903781206842
20
-83.728935972606905
30
0
11
79.045677218706842
21
-83.728935972606905
31
0
0
SPLINE
5
510
100
AcDbEntity
8
0
100
AcDbSpline
70
0
71
3
72
9
73
5
74
0
42
0.000000001
43
0.0000000001
44
0.0000000001
40
0
40
0
40
0
40
0
40
0.098640366066735277
40
0.2013330639350116
40
0.2013330639350116
40
0.2013330639350116
40
0.2013330639350116
10
75.959739718706842
20
-84.021904722606905
30
0
10
75.721121484646247
20
-83.795562823417271
30
0
10
75.234082130578187
20
-83.333580474022
30
0
10
74.718707424604219
20
-82.903422226848733
30
0
10
74.455833468706842
20
-82.684014097606905
30
0
0
LINE
5
511
100
AcDbEntity
8
0
100
AcDbLine
10
78.542747531206842
20
-83.728935972606877
30
0
11
77.151145968706842
21
-83.728935972606905
31
0
0
LINE
5
512
100
AcDbEntity
8
0
100
AcDbLine
10
87.922630343706842
20
-84.139092222606905
30
0
11
87.199974093706842
21
-84.139092222606905
31
0
0
LINE
5
513
100
AcDbEntity
8
0
100
AcDbLine
10
90.393333468706842
20
-87.605889097606905
30
0
11
90.393333468706842
21
-88.465264097606905
31
0
0
LINE
5
514
100
AcDbEntity
8
0
100
AcDbLine
10
89.221458468706842
20
-87.605889097606905
30
0
11
87.268333468706842
21
-87.605889097606905
31
0
0
LINE
5
515
100
AcDbEntity
8
0
100
AcDbLine
10
87.268333468706842
20
-87.605889097606905
30
0
11
87.268333468706842
21
-86.385185972606905
31
0
0
LINE
5
516
100
AcDbEntity
8
0
100
AcDbLine
10
77.151145968706842
20
-83.728935972606905
30
0
11
77.151145968706842
21
-82.644951597606905
31
0
0
LINE
5
517
100
AcDbEntity
8
0
100
AcDbLine
10
90.393333468706842
20
-86.443779722606905
30
0
11
91.282005343706842
21
-86.443779722606905
31
0
0
LINE
5
518
100
AcDbEntity
8
0
100
AcDbLine
10
83.762474093706842
20
-82.644951597606905
30
0
11
83.762474093706842
21
-83.728935972606905
31
0
0
SPLINE
5
519
100
AcDbEntity
8
0
100
AcDbSpline
70
0
71
3
72
9
73
5
74
0
42
0.000000001
43
0.0000000001
44
0.0000000001
40
0
40
0
40
0
40
0
40
0.08719956728101684
40
0.20226467817027605
40
0.20226467817027605
40
0.20226467817027605
40
0.20226467817027605
10
87.199974093706842
20
-88.582451597606905
30
0
10
87.49051248794494
20
-88.573830107021806
30
0
10
88.164433891904395
20
-88.553832037387792
30
0
10
88.838176929009904
20
-88.528502045926771
30
0
10
89.221458468706842
20
-88.514092222606905
30
0
0
SPLINE
5
520
100
AcDbEntity
8
0
100
AcDbSpline
70
0
71
3
72
9
73
5
74
0
42
0.000000001
43
0.0000000001
44
0.0000000001
40
0
40
0
40
0
40
0
40
0.073489977977259896
40
0.13046739966635026
40
0.13046739966635026
40
0.13046739966635026
40
0.13046739966635026
10
75.364036593706842
20
-87.176201597606905
30
0
10
75.589701232600035
20
-87.2718890228969
30
0
10
75.990325636680723
20
-87.441763744620403
30
0
10
76.404056243086487
20
-87.576391604385151
30
0
10
76.584739718706842
20
-87.635185972606905
30
0
0
SPLINE
5
521
100
AcDbEntity
8
0
100
AcDbSpline
70
0
71
3
72
9
73
5
74
0
42
0.000000001
43
0.0000000001
44
0.0000000001
40
0
40
0
40
0
40
0
40
0.049365330968624589
40
0.10168040025226036
40
0.10168040025226036
40
0.10168040025226036
40
0.10168040025226036
10
90.393333468706842
20
-88.465264097606905
30
0
10
90.557734566908735
20
-88.458212451228903
30
0
10
90.896360261076666
20
-88.443687799776484
30
0
10
91.23481950976435
20
-88.425693915264418
30
0
10
91.408958468706842
20
-88.416435972606905
30
0
0
LINE
5
522
100
AcDbEntity
8
0
100
AcDbLine
10
82.209739718706842
20
-87.361748472606905
30
0
11
80.891380343706842
21
-87.425225035106905
31
0
0
SPLINE
5
523
100
AcDbEntity
8
0
100
AcDbSpline
70
0
71
3
72
9
73
5
74
0
42
0.000000001
43
0.0000000001
44
0.0000000001
40
0
40
0
40
0
40
0
40
0.071388071363083297
40
0.13750151489247239
40
0.13750151489247239
40
0.13750151489247239
40
0.13750151489247239
10
83.957786593706842
20
-89.959404722606877
30
0
10
83.810905735964553
20
-90.147143685706297
30
0
10
83.527996559926621
20
-90.508750202560009
30
0
10
83.30384455424749
20
-90.909361179326311
30
0
10
83.196067843706842
20
-91.101982847606877
30
0
0
SPLINE
5
524
100
AcDbEntity
8
0
100
AcDbSpline
70
0
71
3
72
9
73
5
74
0
42
0.000000001
43
0.0000000001
44
0.0000000001
40
0
40
0
40
0
40
0
40
0.049461830180513013
40
0.10969929327443369
40
0.10969929327443369
40
0.10969929327443369
40
0.10969929327443369
10
80.774192843706842
20
-81.648857847606905
30
0
10
80.84803569630246
20
-81.796314526113292
30
0
10
81.011808624104475
20
-82.123352433156157
30
0
10
81.154708717645136
20
-82.460060399905586
30
0
10
81.233177218706842
20
-82.644951597606905
30
0
0
LINE
5
525
100
AcDbEntity
8
0
100
AcDbLine
10
76.867942843706842
20
-83.035576597606877
30
0
11
75.959739718706842
21
-84.021904722606905
31
0
0
LINE
5
526
100
AcDbEntity
8
0
100
AcDbLine
10
79.045677218706842
20
-83.728935972606905
30
0
11
79.699974093706842
21
-84.236748472606905
31
0
0
LINE
5
527
100
AcDbEntity
8
0
100
AcDbLine
10
74.192161593706842
20
-85.310967222606905
30
0
11
74.992942843706842
21
-84.383232847606905
31
0
0
LINE
5
528
100
AcDbEntity
8
0
100
AcDbLine
10
87.199974093706842
20
-84.139092222606905
30
0
11
87.199974093706842
21
-82.976982847606905
31
0
0
SPLINE
5
529
100
AcDbEntity
8
0
100
AcDbSpline
70
0
71
3
72
9
73
5
74
0
42
0.000000001
43
0.0000000001
44
0.0000000001
40
0
40
0
40
0
40
0
40
0.052815692511679529
40
0.10173162917718029
40
0.10173162917718029
40
0.10173162917718029
40
0.10173162917718029
10
91.408958468706842
20
-89.578545347606877
30
0
10
91.233165541935719
20
-89.588108873650683
30
0
10
90.894559722570676
20
-89.606529783021472
30
0
10
90.556083869298732
20
-89.627200116613352
30
0
10
90.393333468706842
20
-89.637139097606877
30
0
0
LINE
5
530
100
AcDbEntity
8
0
100
AcDbLine
10
91.907005343706842
20
-89.764092222606877
30
0
11
91.907005343706842
21
-85.623467222606877
31
0
0
SPLINE
5
531
100
AcDbEntity
8
0
100
AcDbSpline
70
0
71
3
72
9
73
5
74
0
42
0.000000001
43
0.0000000001
44
0.0000000001
40
0
40
0
40
0
40
0
40
0.034406508830220381
40
0.068541698894347913
40
0.068541698894347913
40
0.068541698894347913
40
0.068541698894347913
10
91.907005343706842
20
-85.623467222606905
30
0
10
91.822138351099056
20
-85.700635526997857
30
0
10
91.653073599947021
20
-85.854363611118572
30
0
10
91.477077121471154
20
-86.000104154242052
30
0
10
91.389427218706842
20
-86.072685972606905
30
0
0
LINE
5
532
100
AcDbEntity
8
0
100
AcDbLine
10
91.282005343706842
20
-86.443779722606905
30
0
11
91.282005343706842
21
-87.605889097606905
31
0
0
LINE
5
533
100
AcDbEntity
8
0
100
AcDbLine
10
76.535911593706842
20
-85.613701597606905
30
0
11
75.657005343706842
21
-86.668389097606905
31
0
0
LINE
5
534
100
AcDbEntity
8
0
100
AcDbLine
10
74.455833468706842
20
-82.684014097606905
30
0
11
75.266380343706842
21
-81.834404722606905
31
0
0
SPLINE
5
535
100
AcDbEntity
8
0
100
AcDbSpline
70
0
71
3
72
9
73
5
74
0
42
0.000000001
43
0.0000000001
44
0.0000000001
40
0
40
0
40
0
40
0
40
0.10724111433944933
40
0.2340281620352192
40
0.2340281620352192
40
0.2340281620352192
40
0.2340281620352192
10
87.268333468706842
20
-86.385185972606905
30
0
10
87.382392762441299
20
-86.046249178800707
30
0
10
87.631299975315073
20
-85.306600440635805
30
0
10
87.820259611220095
20
-84.549343553848715
30
0
10
87.922630343706842
20
-84.139092222606905
30
0
0
LINE
5
536
100
AcDbEntity
8
0
100
AcDbLine
10
79.416770968706842
20
-81.912529722606905
30
0
11
80.774192843706842
21
-81.648857847606905
31
0
0
LINE
5
537
100
AcDbEntity
8
0
100
AcDbLine
10
87.229270968706842
20
-89.822685972606877
30
0
11
87.199974093706842
21
-88.582451597606877
31
0
0
SPLINE
5
538
100
AcDbEntity
8
0
100
AcDbSpline
70
0
71
3
72
9
73
5
74
0
42
0.000000001
43
0.0000000001
44
0.0000000001
40
0
40
0
40
0
40
0
40
0.039911578916679236
40
0.080019804480059839
40
0.080019804480059839
40
0.080019804480059839
40
0.080019804480059839
10
79.739036593706842
20
-82.644951597606905
30
0
10
79.686478691275809
20
-82.522732028150926
30
0
10
79.581103930603163
20
-82.277690706385101
30
0
10
79.471638292351884
20
-82.034449303732359
30
0
10
79.416770968706842
20
-81.912529722606905
30
0
0
LINE
5
539
100
AcDbEntity
8
0
100
AcDbLine
10
89.221458468706842
20
-91.385185972606877
30
0
11
89.221458468706842
21
-89.695732847606877
31
0
0
LINE
5
540
100
AcDbEntity
8
0
100
AcDbLine
10
80.910911593706842
20
-84.363701597606905
30
0
11
81.452903781206842
21
-83.728935972606905
31
0
0
LINE
5
541
100
AcDbEntity
8
0
100
AcDbLine
10
80.617942843706842
20
-85.984795347606905
30
0
11
81.399192843706842
21
-85.301201597606905
31
0
0
LINE
5
542
100
AcDbEntity
8
0
100
AcDbLine
10
77.151145968706842
20
-82.644951597606905
30
0
11
79.739036593706842
21
-82.644951597606905
31
0
0
LINE
5
543
100
AcDbEntity
8
0
100
AcDbLine
10
91.389427218706842
20
-82.976982847606905
30
0
11
91.389427218706842
21
-84.139092222606905
31
0
0
SPLINE
5
544
100
AcDbEntity
8
0
100
AcDbSpline
70
0
71
3
72
9
73
5
74
0
42
0.000000001
43
0.0000000001
44
0.0000000001
40
0
40
0
40
0
40
0
40
0.14988822746288019
40
0.29290150451390196
40
0.29290150451390196
40
0.29290150451390196
40
0.29290150451390196
10
79.699974093706842
20
-84.236748472606905
30
0
10
79.326556462924671
20
-84.570395846687845
30
0
10
78.596848815303062
20
-85.222387130457079
30
0
10
77.763243572121922
20
-85.734667335902884
30
0
10
77.356224093706842
20
-85.984795347606905
30
0
0
LINE
5
545
100
AcDbEntity
8
0
100
AcDbLine
10
87.199974093706842
20
-82.976982847606905
30
0
11
88.186302218706842
21
-82.976982847606905
31
0
0
LINE
5
546
100
AcDbEntity
8
0
100
AcDbLine
10
89.221458468706842
20
-88.514092222606919
30
0
11
89.221458468706842
21
-87.605889097606905
31
0
0
SPLINE
5
547
100
AcDbEntity
8
0
100
AcDbSpline
70
0
71
3
72
9
73
5
74
0
42
0.000000001
43
0.0000000001
44
0.0000000001
40
0
40
0
40
0
40
0
40
0.12669957590912836
40
0.24014093005403758
40
0.24014093005403758
40
0.24014093005403758
40
0.24014093005403758
10
89.192161593706842
20
-84.139092222606905
30
0
10
89.082051154991575
20
-84.546875273658486
30
0
10
88.873352562498198
20
-85.319769740251118
30
0
10
88.63223580077144
20
-86.083158672941721
30
0
10
88.518333468706842
20
-86.443779722606905
30
0
0
LINE
5
548
100
AcDbEntity
8
0
100
AcDbLine
10
90.393333468706842
20
-84.744560972606905
30
0
11
90.393333468706842
21
-86.443779722606905
31
0
0
SPLINE
5
549
100
AcDbEntity
8
0
100
AcDbSpline
70
0
71
3
72
9
73
5
74
0
42
0.000000001
43
0.0000000001
44
0.0000000001
40
0
40
0
40
0
40
0
40
0.060304711189764507
40
0.11621504650663916
40
0.11621504650663916
40
0.11621504650663916
40
0.11621504650663916
10
91.408958468706842
20
-88.416435972606905
30
0
10
91.406453100181878
20
-88.617445366500718
30
0
10
91.401624928155201
20
-89.004816694524067
30
0
10
91.406576363830965
20
-89.392184910610723
30
0
10
91.408958468706842
20
-89.578545347606877
30
0
0
LINE
5
550
100
AcDbEntity
8
0
100
AcDbLine
10
81.233177218706842
20
-82.644951597606905
30
0
11
83.762474093706842
21
-82.644951597606905
31
0
0
SPLINE
5
551
100
AcDbEntity
8
0
100
AcDbSpline
70
0
71
3
72
9
73
5
74
0
42
0.000000001
43
0.0000000001
44
0.0000000001
40
0
40
0
40
0
40
0
40
0.062793044687940086
40
0.1196227734617937
40
0.1196227734617937
40
0.1196227734617937
40
0.1196227734617937
10
77.356224093706842
20
-85.984795347606905
30
0
10
77.233406142015866
20
-85.815161024102778
30
0
10
76.999433986577543
20
-85.492002171833008
30
0
10
76.738160814273257
20
-85.190521246273391
30
0
10
76.614036593706842
20
-85.047295347606905
30
0
0
LINE
5
552
100
AcDbEntity
8
0
100
AcDbLine
10
88.518333468706842
20
-86.443779722606905
30
0
11
89.221458468706842
21
-86.443779722606905
31
0
0
SPLINE
5
553
100
AcDbEntity
8
0
100
AcDbSpline
70
0
71
3
72
9
73
5
74
0
42
0.000000001
43
0.0000000001
44
0.0000000001
40
0
40
0
40
0
40
0
40
0.11792901993240687
40
0.20021744967625515
40
0.20021744967625515
40
0.20021744967625515
40
0.20021744967625515
10
75.266380343706842
20
-81.834404722606905
30
0
10
75.585869980233298
20
-82.063544905692112
30
0
10
76.128292873766952
20
-82.452574366820215
30
0
10
76.652497293648281
20
-82.865759465988006
30
0
10
76.867942843706842
20
-83.035576597606905
30
0
0
LINE
5
554
100
AcDbEntity
8
0
100
AcDbLine
10
90.393333468706842
20
-91.385185972606877
30
0
11
89.221458468706842
21
-91.385185972606877
31
0
0
LINE
5
555
100
AcDbEntity
8
0
100
AcDbLine
10
91.282005343706842
20
-87.605889097606905
30
0
11
90.393333468706842
21
-87.605889097606905
31
0
0
LINE
5
556
100
AcDbEntity
8
0
100
AcDbLine
10
89.485130343706842
20
-82.976982847606905
30
0
11
91.389427218706842
21
-82.976982847606905
31
0
0
LWPOLYLINE
5
557
100
AcDbEntity
8
0
100
AcDbPolyline
90
8
70
1
43
0.0
10
137.50000000000003
20
0
10
-20.500000000000007
20
0
42
0.4142135623730957
10
-33
20
-12.5
10
-33
20
-157.49999999999997
42
0.41421356237309481
10
-20.500000000000025
20
-170
10
137.5
20
-170
42
0.41421356237309509
10
150
20
-157.5
10
150
20
-12.499999999999993
42
0.41421356237309442
0
LINE
5
558
100
AcDbEntity
8
0
100
AcDbLine
10
24.066619971211225
20
-10.798680228197375
30
0
11
20.943573215420514
21
-10.798680228197375
31
0
0
LINE
5
559
100
AcDbEntity
8
0
100
AcDbLine
10
20.943573215420514
20
-10.798680228197375
30
0
11
20.943573215420514
21
-11.535008591615954
31
0
0
LINE
5
560
100
AcDbEntity
8
0
100
AcDbLine
10
20.943573215420514
20
-11.535008591615954
30
0
11
28.154510357792645
21
-11.535008591615954
31
0
0
LINE
5
561
100
AcDbEntity
8
0
100
AcDbLine
10
28.154510357792645
20
-11.535008591615954
30
0
11
28.154510357792645
21
-10.798680228197375
31
0
0
LINE
5
562
100
AcDbEntity
8
0
100
AcDbLine
10
28.154510357792645
20
-10.798680228197375
30
0
11
25.031463602001935
21
-10.798680228197375
31
0
0
LINE
5
563
100
AcDbEntity
8
0
100
AcDbLine
10
25.031463602001935
20
-10.798680228197375
30
0
11
25.031463602001935
21
-9.6561026992438226
31
0
0
LINE
5
564
100
AcDbEntity
8
0
100
AcDbLine
10
25.031463602001935
20
-9.6561026992438226
30
0
11
28.154510357792645
21
-9.6561026992438226
31
0
0
LINE
5
565
100
AcDbEntity
8
0
100
AcDbLine
10
28.154510357792645
20
-9.6561026992438226
30
0
11
28.154510357792645
21
-8.9324689330695062
31
0
0
LINE
5
566
100
AcDbEntity
8
0
100
AcDbLine
10
28.154510357792645
20
-8.9324689330695062
30
0
11
24.955291846211225
21
-8.9324689330695062
31
0
0
LINE
5
567
100
AcDbEntity
8
0
100
AcDbLine
10
24.955291846211225
20
-8.9324689330695062
30
0
11
24.955291846211225
21
-7.7137190522787957
31
0
0
LINE
5
568
100
AcDbEntity
8
0
100
AcDbLine
10
24.955291846211225
20
-7.7137190522787957
30
0
11
29.728728630955487
21
-7.7137190522787957
31
0
0
LINE
5
569
100
AcDbEntity
8
0
100
AcDbLine
10
29.728728630955487
20
-7.7137190522787957
30
0
11
29.728728630955487
21
-12.753758472406664
31
0
0
LINE
5
570
100
AcDbEntity
8
0
100
AcDbLine
10
29.728728630955487
20
-12.753758472406664
30
0
11
19.369354495222836
21
-12.753758472406664
31
0
0
LINE
5
571
100
AcDbEntity
8
0
100
AcDbLine
10
19.369354495222836
20
-12.753758472406664
30
0
11
19.369354495222836
21
-7.9549295129416375
31
0
0
SPLINE
5
572
100
AcDbEntity
8
0
100
AcDbSpline
70
0
71
3
72
9
73
5
74
0
42
0.000000001
43
0.0000000001
44
0.0000000001
40
0
40
0
40
0
40
0
40
0.23186869732128076
40
0.46198438545042853
40
0.46198438545042853
40
0.46198438545042853
40
0.46198438545042853
10
19.369354495222836
20
-7.9549295129416375
30
0
10
20.13864175078151
20
-7.8738078212146121
30
0
10
21.671400178719168
20
-7.7121777463827348
30
0
10
23.177018861807799
20
-7.3827107534589009
30
0
10
23.926971652920514
20
-7.2186023416159539
30
0
0
LINE
5
573
100
AcDbEntity
8
0
100
AcDbLine
10
23.926971652920514
20
-7.218602341615953
30
0
11
24.549042084629804
21
-8.5896957339880853
31
0
0
SPLINE
5
574
100
AcDbEntity
8
0
100
AcDbSpline
70
0
71
3
72
9
73
5
74
0
42
0.000000001
43
0.0000000001
44
0.0000000001
40
0
40
0
40
0
40
0
40
0.1770256752954987
40
0.36322743394763413
40
0.36322743394763413
40
0.36322743394763413
40
0.36322743394763413
10
24.549042084629804
20
-8.5896957339880853
30
0
10
23.965887805366922
20
-8.6812298545681834
30
0
10
22.769351584851659
20
-8.8690427448817726
30
0
10
21.562330186975814
20
-8.9697244691221698
30
0
10
20.943573215420514
20
-9.0213370742438226
30
0
0
LINE
5
575
100
AcDbEntity
8
0
100
AcDbLine
10
20.943573215420514
20
-9.0213370742438208
30
0
11
20.943573215420514
21
-9.6561026992438226
31
0
0
LINE
5
576
100
AcDbEntity
8
0
100
AcDbLine
10
20.943573215420514
20
-9.6561026992438226
30
0
11
24.066619971211225
21
-9.6561026992438226
31
0
0
LINE
5
577
100
AcDbEntity
8
0
100
AcDbLine
10
24.066619971211225
20
-9.6561026992438226
30
0
11
24.066619971211225
21
-10.798680228197375
31
0
0
SPLINE
5
578
100
AcDbEntity
8
0
100
AcDbSpline
70
0
71
3
72
9
73
5
74
0
42
0.000000001
43
0.0000000001
44
0.0000000001
40
0
40
0
40
0
40
0
40
0.080192985540843642
40
0.1618992062005537
40
0.1618992062005537
40
0.1618992062005537
40
0.1618992062005537
10
27.735565402920514
20
-17.235203427278798
30
0
10
27.701144134600717
20
-17.500421867862624
30
0
10
27.631652071425783
20
-18.03586339944647
30
0
10
27.607902740097568
20
-18.575279118640506
30
0
10
27.595917084629804
20
-18.847507876360218
30
0
0
SPLINE
5
579
100
AcDbEntity
8
0
100
AcDbSpline
70
0
71
3
72
9
73
5
74
0
42
0.000000001
43
0.0000000001
44
0.0000000001
40
0
40
0
40
0
40
0
40
0.23987106523385662
40
0.38512880058533883
40
0.38512880058533883
40
0.38512880058533883
40
0.38512880058533883
10
27.595917084629804
20
-18.847507876360218
30
0
10
26.813927325933406
20
-19.017699151545003
30
0
10
25.55839124223299
20
-19.290952457933187
30
0
10
24.336897117472311
20
-19.687992305041604
30
0
10
23.876190283711225
20
-19.837742489778798
30
0
0
LINE
5
580
100
AcDbEntity
8
0
100
AcDbLine
10
23.876190283711225
20
-19.837742489778798
30
0
11
23.266815045292645
21
-18.504734677278798
31
0
0
SPLINE
5
581
100
AcDbEntity
8
0
100
AcDbSpline
70
0
71
3
72
9
73
5
74
0
42
0.000000001
43
0.0000000001
44
0.0000000001
40
0
40
0
40
0
40
0
40
0.043651423988663354
40
0.085377283507108048
40
0.085377283507108048
40
0.085377283507108048
40
0.085377283507108048
10
23.266815045292645
20
-18.504734677278798
30
0
10
23.377882513019678
20
-18.402796770680499
30
0
10
23.595118007628287
20
-18.203417672440221
30
0
10
23.63042101931903
20
-17.911213347620095
30
0
10
23.647674420292645
20
-17.768406313860218
30
0
0
LINE
5
582
100
AcDbEntity
8
0
100
AcDbLine
10
23.647674420292638
20
-17.768406313860215
30
0
11
23.647674420292645
21
-13.109226864778796
31
0
0
LINE
5
583
100
AcDbEntity
8
0
100
AcDbLine
10
23.647674420292645
20
-13.109226864778796
30
0
11
25.171112516339093
21
-13.109226864778796
31
0
0
LINE
5
584
100
AcDbEntity
8
0
100
AcDbLine
10
25.171112516339093
20
-13.109226864778796
30
0
11
25.171112516339093
21
-17.895359438860218
31
0
0
LINE
5
585
100
AcDbEntity
8
0
100
AcDbLine
10
25.171112516339093
20
-17.895359438860218
30
0
11
27.735565402920514
21
-17.235203427278798
31
0
0
SPLINE
5
586
100
AcDbEntity
8
0
100
AcDbSpline
70
0
71
3
72
9
73
5
74
0
42
0.000000001
43
0.0000000001
44
0.0000000001
40
0
40
0
40
0
40
0
40
0.085281020665638307
40
0.16342162697055426
40
0.16342162697055426
40
0.16342162697055426
40
0.16342162697055426
10
23.089081147129804
20
-17.298679989778798
30
0
10
23.041402245069342
20
-17.57940872022597
30
0
10
22.950036502890441
20
-18.117361309312898
30
0
10
22.94103915295161
20
-18.662852000446609
30
0
10
22.936737039501935
20
-18.923680228197377
30
0
0
SPLINE
5
587
100
AcDbEntity
8
0
100
AcDbSpline
70
0
71
3
72
9
73
5
74
0
42
0.000000001
43
0.0000000001
44
0.0000000001
40
0
40
0
40
0
40
0
40
0.22146611556477977
40
0.34562279595512979
40
0.34562279595512979
40
0.34562279595512979
40
0.34562279595512979
10
22.936737039501935
20
-18.923680228197377
30
0
10
22.213348176584198
20
-19.077382608832654
30
0
10
21.084418449673905
20
-19.31725247066073
30
0
10
20.000085883556494
20
-19.709523242685453
30
0
10
19.61056547742632
20
-19.85043708702306
30
0
0
LINE
5
588
100
AcDbEntity
8
0
100
AcDbLine
10
19.610565477426324
20
-19.85043708702306
30
0
11
19.013885804827481
21
-18.568211239778798
31
0
0
SPLINE
5
589
100
AcDbEntity
8
0
100
AcDbSpline
70
0
71
3
72
9
73
5
74
0
42
0.000000001
43
0.0000000001
44
0.0000000001
40
0
40
0
40
0
40
0
40
0.04461908383657643
40
0.085110012925297587
40
0.085110012925297587
40
0.085110012925297587
40
0.085110012925297587
10
19.013885804827481
20
-18.568211239778798
30
0
10
19.124891314993281
20
-18.461896440809195
30
0
10
19.336632112711005
20
-18.259103081187682
30
0
10
19.376010829256458
20
-17.969609096733684
30
0
10
19.394745179827481
20
-17.831882876360218
30
0
0
LINE
5
590
100
AcDbEntity
8
0
100
AcDbLine
10
19.394745179827481
20
-17.831882876360218
30
0
11
19.394745179827481
21
-13.109226864778796
31
0
0
LINE
5
591
100
AcDbEntity
8
0
100
AcDbLine
10
19.394745179827481
20
-13.109226864778796
30
0
11
20.918182679827481
21
-13.109226864778796
31
0
0
LINE
5
592
100
AcDbEntity
8
0
100
AcDbLine
10
20.918182679827481
20
-13.109226864778796
30
0
11
20.918182679827481
21
-17.869969052278798
31
0
0
SPLINE
5
593
100
AcDbEntity
8
0
100
AcDbSpline
70
0
71
3
72
9
73
5
74
0
42
0.000000001
43
0.0000000001
44
0.0000000001
40
0
40
0
40
0
40
0
40
0.10846232263385037
40
0.22448471123431421
40
0.22448471123431421
40
0.22448471123431421
40
0.22448471123431421
10
20.918182679827481
20
-17.869969052278798
30
0
10
21.268617838622585
20
-17.781017615108428
30
0
10
21.993914268923426
20
-17.596914627064585
30
0
10
22.715920419534783
20
-17.400298707855686
30
0
10
23.089081147129804
20
-17.298679989778798
30
0
0
LINE
5
594
100
AcDbEntity
8
0
100
AcDbLine
10
27.849823334629804
20
-13.109226864778796
30
0
11
29.347869255955487
21
-13.109226864778796
31
0
0
SPLINE
5
595
100
AcDbEntity
8
0
100
AcDbSpline
70
0
71
3
72
9
73
5
74
0
42
0.000000001
43
0.0000000001
44
0.0000000001
40
0
40
0
40
0
40
0
40
0.36585651156931737
40
0.49383103165141506
40
0.49383103165141506
40
0.49383103165141506
40
0.49383103165141506
10
29.347869255955487
20
-13.109226864778796
30
0
10
29.269509401025779
20
-14.349222361194338
30
0
10
29.163739715981755
20
-16.022961206544853
30
0
10
29.72335521831863
20
-17.580576131614318
30
0
10
29.868377545292645
20
-17.984226387941639
30
0
0
SPLINE
5
596
100
AcDbEntity
8
0
100
AcDbSpline
70
0
71
3
72
9
73
5
74
0
42
0.000000001
43
0.0000000001
44
0.0000000001
40
0
40
0
40
0
40
0
40
0.051635940734000081
40
0.19504965871488758
40
0.19504965871488758
40
0.19504965871488758
40
0.19504965871488758
10
29.868377545292645
20
-17.984226387941639
30
0
10
29.94178289978975
20
-17.827218469060636
30
0
10
30.219064365741183
20
-17.23413658543555
30
0
10
30.207187575515228
20
-16.568990875265293
30
0
10
30.198454955036908
20
-16.079930705034535
30
0
0
SPLINE
5
597
100
AcDbEntity
8
0
100
AcDbSpline
70
0
71
3
72
9
73
5
74
0
42
0.000000001
43
0.0000000001
44
0.0000000001
40
0
40
0
40
0
40
0
40
0.066040731433509886
40
0.12698574152857814
40
0.12698574152857814
40
0.12698574152857814
40
0.12698574152857814
10
30.198454955036908
20
-16.079930705034535
30
0
10
30.382989118339509
20
-16.200174808825601
30
0
10
30.737818737207803
20
-16.431384947673347
30
0
10
31.111100841830233
20
-16.631397657101374
30
0
10
31.290252306874066
20
-16.727390927278798
30
0
0
SPLINE
5
598
100
AcDbEntity
8
0
100
AcDbSpline
70
0
71
3
72
9
73
5
74
0
42
0.000000001
43
0.0000000001
44
0.0000000001
40
0
40
0
40
0
40
0
40
0.12757731045086515
40
0.22950844363535283
40
0.22950844363535283
40
0.22950844363535283
40
0.22950844363535283
10
31.290252306874066
20
-16.727390927278798
30
0
10
31.230455199282815
20
-17.149425980844264
30
0
10
31.122881673483739
20
-17.908656661919625
30
0
10
30.887139509848367
20
-18.637891554844618
30
0
10
30.782439806874066
20
-18.96176521202306
30
0
0
SPLINE
5
599
100
AcDbEntity
8
0
100
AcDbSpline
70
0
71
3
72
9
73
5
74
0
42
0.000000001
43
0.0000000001
44
0.0000000001
40
0
40
0
40
0
40
0
40
0.075350870318840787
40
0.13888845569008598
40
0.13888845569008598
40
0.13888845569008598
40
0.13888845569008598
10
30.782439806874066
20
-18.96176521202306
30
0
10
30.670578412854045
20
-19.205597696299424
30
0
10
30.464392920887722
20
-19.655035334443784
30
0
10
29.985770968541161
20
-19.754262609680818
30
0
10
29.766814806874066
20
-19.799656313860218
30
0
0
SPLINE
5
600
100
AcDbEntity
8
0
100
AcDbSpline
70
0
71
3
72
9
73
5
74
0
42
0.000000001
43
0.0000000001
44
0.0000000001
40
0
40
0
40
0
40
0
40
0.088819137849552615
40
0.20325575886140662
40
0.20325575886140662
40
0.20325575886140662
40
0.20325575886140662
10
29.766814806874066
20
-19.799656313860218
30
0
10
29.465003431840564
20
-19.722879568582663
30
0
10
28.774331336268688
20
-19.547181897989049
30
0
10
28.495551033985997
20
-18.878205685128346
30
0
10
28.338592746670514
20
-18.50156013389806
30
0
0
SPLINE
5
601
100
AcDbEntity
8
0
100
AcDbSpline
70
0
71
3
72
9
73
5
74
0
42
0.000000001
43
0.0000000001
44
0.0000000001
40
0
40
0
40
0
40
0
40
0.20304953332731179
40
0.54278956208481588
40
0.54278956208481588
40
0.54278956208481588
40
0.54278956208481588
10
28.338592746670514
20
-18.50156013389806
30
0
10
28.198098502968918
20
-17.837848032921432
30
0
10
27.822530986193112
20
-16.063620854281375
30
0
10
27.839316827721756
20
-14.2465551871035
30
0
10
27.849823334629804
20
-13.109226864778796
30
0
0
SPLINE
5
602
100
AcDbEntity
8
0
100
AcDbSpline
70
0
71
3
72
9
73
5
74
0
42
0.000000001
43
0.0000000001
44
0.0000000001
40
0
40
0
40
0
40
0
40
0.11768355104509921
40
0.22120289782716951
40
0.22120289782716951
40
0.22120289782716951
40
0.22120289782716951
10
21.552948453839093
20
-13.172703427278796
30
0
10
21.923068859600214
20
-13.303191508182346
30
0
10
22.618762570167725
20
-13.548462332961497
30
0
10
23.293719847846532
20
-13.84597327850479
30
0
10
23.609588840420514
20
-13.985203546488085
30
0
0
LINE
5
603
100
AcDbEntity
8
0
100
AcDbLine
10
23.609588840420514
20
-13.985203546488085
30
0
11
23.038299777920514
21
-15.089696091615954
31
0
0
SPLINE
5
604
100
AcDbEntity
8
0
100
AcDbSpline
70
0
71
3
72
9
73
5
74
0
42
0.000000001
43
0.0000000001
44
0.0000000001
40
0
40
0
40
0
40
0
40
0.10889004386596017
40
0.21898347558918202
40
0.21898347558918202
40
0.21898347558918202
40
0.21898347558918202
10
23.038299777920514
20
-15.089696091615954
30
0
10
22.712568286073349
20
-14.92907293607194
30
0
10
22.057505512094252
20
-14.606051513613632
30
0
10
21.375378318506225
20
-14.344975012206602
30
0
10
21.032440462525159
20
-14.213719409906664
30
0
0
LINE
5
605
100
AcDbEntity
8
0
100
AcDbLine
10
21.032440462525159
20
-14.213719409906664
30
0
11
21.552948453839093
21
-13.172703427278796
31
0
0
SPLINE
5
606
100
AcDbEntity
8
0
100
AcDbSpline
70
0
71
3
72
9
73
5
74
0
42
0.000000001
43
0.0000000001
44
0.0000000001
40
0
40
0
40
0
40
0
40
0.10884334827343869
40
0.21886488257511394
40
0.21886488257511394
40
0.21886488257511394
40
0.21886488257511394
10
25.780487158711225
20
-13.261570972406664
30
0
10
26.123092898237815
20
-13.381535646694314
30
0
10
26.812012948387959
20
-13.622763565236164
30
0
10
27.477301968158791
20
-13.923095939101717
30
0
10
27.811737158711225
20
-14.074070495569506
30
0
0
LINE
5
607
100
AcDbEntity
8
0
100
AcDbLine
10
27.811737158711217
20
-14.074070495569504
30
0
11
27.265838482792645
21
-15.178563040697375
31
0
0
SPLINE
5
608
100
AcDbEntity
8
0
100
AcDbSpline
70
0
71
3
72
9
73
5
74
0
42
0.000000001
43
0.0000000001
44
0.0000000001
40
0
40
0
40
0
40
0
40
0.11030914458254039
40
0.21898804719832687
40
0.21898804719832687
40
0.21898804719832687
40
0.21898804719832687
10
27.265838482792645
20
-15.178563040697375
30
0
10
26.935981354402557
20
-15.015574960244113
30
0
10
26.281142005643545
20
-14.692007575235921
30
0
10
25.598673448218431
20
-14.4317476017107
30
0
10
25.259979465420514
20
-14.302586358988085
30
0
0
LINE
5
609
100
AcDbEntity
8
0
100
AcDbLine
10
25.259979465420514
20
-14.302586358988085
30
0
11
25.780487158711225
21
-13.261570972406664
31
0
0
SPLINE
5
610
100
AcDbEntity
8
0
100
AcDbSpline
70
0
71
3
72
9
73
5
74
0
42
0.000000001
43
0.0000000001
44
0.0000000001
40
0
40
0
40
0
40
0
40
0.11051573333153314
40
0.2227965709238347
40
0.2227965709238347
40
0.2227965709238347
40
0.2227965709238347
10
21.514862277920514
20
-15.216649216615954
30
0
10
21.859517746017964
20
-15.346824516617927
30
0
10
22.55433335396317
20
-15.609254214047674
30
0
10
23.239101333354814
20
-15.896887372142917
30
0
10
23.584197857792645
20
-16.04184333702306
30
0
0
LINE
5
611
100
AcDbEntity
8
0
100
AcDbLine
10
23.584197857792649
20
-16.04184333702306
30
0
11
23.025604584629804
21
-17.146336478197377
31
0
0
SPLINE
5
612
100
AcDbEntity
8
0
100
AcDbSpline
70
0
71
3
72
9
73
5
74
0
42
0.000000001
43
0.0000000001
44
0.0000000001
40
0
40
0
40
0
40
0
40
0.11187956899283837
40
0.22297488789002234
40
0.22297488789002234
40
0.22297488789002234
40
0.22297488789002234
10
23.025604584629804
20
-17.146336478197377
30
0
10
22.690322338470267
20
-16.982580326364985
30
0
10
22.02210809772965
20
-16.656215915732815
30
0
10
21.327661454630686
20
-16.390203166240262
30
0
10
20.981659391339093
20
-16.257664603197377
30
0
0
LINE
5
613
100
AcDbEntity
8
0
100
AcDbLine
10
20.981659391339086
20
-16.257664603197373
30
0
11
21.514862277920514
21
-15.216649216615954
31
0
0
SPLINE
5
614
100
AcDbEntity
8
0
100
AcDbSpline
70
0
71
3
72
9
73
5
74
0
42
0.000000001
43
0.0000000001
44
0.0000000001
40
0
40
0
40
0
40
0
40
0.10776308324310767
40
0.22399840469907328
40
0.22399840469907328
40
0.22399840469907328
40
0.22399840469907328
10
25.793182352001935
20
-15.318211955034533
30
0
10
26.130788172309877
20
-15.441124153354869
30
0
10
26.832542083670212
20
-15.696611798225799
30
0
10
27.519001906667683
20
-15.990766858874681
30
0
10
27.875213721211225
20
-16.143407267534535
30
0
0
LINE
5
615
100
AcDbEntity
8
0
100
AcDbLine
10
27.875213721211225
20
-16.143407267534535
30
0
11
27.303924658711225
21
-17.24789802452306
31
0
0
SPLINE
5
616
100
AcDbEntity
8
0
100
AcDbSpline
70
0
71
3
72
9
73
5
74
0
42
0.000000001
43
0.0000000001
44
0.0000000001
40
0
40
0
40
0
40
0
40
0.11130544579175915
40
0.22299040073938456
40
0.22299040073938456
40
0.22299040073938456
40
0.22299040073938456
10
27.303924658711225
20
-17.24789802452306
30
0
10
26.970903959479546
20
-17.083809271144293
30
0
10
26.303727087333371
20
-16.755072284265744
30
0
10
25.608289862792727
20
-16.49132448593679
30
0
10
25.259979465420514
20
-16.35922614952306
30
0
0
LINE
5
617
100
AcDbEntity
8
0
100
AcDbLine
10
25.259979465420514
20
-16.35922614952306
30
0
11
25.793182352001935
21
-15.318211955034533
31
0
0
SPLINE
5
618
100
AcDbEntity
8
0
100
AcDbSpline
70
0
71
3
72
9
73
5
74
0
42
0.000000001
43
0.0000000001
44
0.0000000001
40
0
40
0
40
0
40
0
40
0.19048079031476264
40
0.3728565736560342
40
0.3728565736560342
40
0.3728565736560342
40
0.3728565736560342
10
35.467010834629804
20
-14.632664364778796
30
0
10
35.769901002926403
20
-14.07269162018796
30
0
10
36.362793284392424
20
-12.976573116354125
30
0
10
36.733131840430666
20
-11.786857175646897
30
0
10
36.914275982792645
20
-11.204929989778796
30
0
0
LINE
5
619
100
AcDbEntity
8
0
100
AcDbLine
10
36.914275982792638
20
-11.204929989778796
30
0
11
35.555877783711225
21
-11.204929989778796
31
0
0
LINE
5
620
100
AcDbEntity
8
0
100
AcDbLine
10
35.555877783711225
20
-11.204929989778796
30
0
11
35.555877783711225
21
-9.541844767534533
31
0
0
LINE
5
621
100
AcDbEntity
8
0
100
AcDbLine
10
35.555877783711225
20
-9.541844767534533
30
0
11
37.015838721211225
21
-9.541844767534533
31
0
0
LINE
5
622
100
AcDbEntity
8
0
100
AcDbLine
10
37.015838721211225
20
-9.541844767534533
30
0
11
37.015838721211225
21
-7.320165080034533
31
0
0
LINE
5
623
100
AcDbEntity
8
0
100
AcDbLine
10
37.015838721211225
20
-7.320165080034533
30
0
11
38.577362397129804
21
-7.320165080034533
31
0
0
LINE
5
624
100
AcDbEntity
8
0
100
AcDbLine
10
38.577362397129804
20
-7.320165080034533
30
0
11
38.577362397129804
21
-9.541844767534533
31
0
0
LINE
5
625
100
AcDbEntity
8
0
100
AcDbLine
10
38.577362397129804
20
-9.541844767534533
30
0
11
39.796112873966962
21
-9.541844767534533
31
0
0
LINE
5
626
100
AcDbEntity
8
0
100
AcDbLine
10
39.796112873966962
20
-9.541844767534533
30
0
11
39.796112873966962
21
-11.204929989778796
31
0
0
LINE
5
627
100
AcDbEntity
8
0
100
AcDbLine
10
39.796112873966962
20
-11.204929989778796
30
0
11
38.577362397129804
21
-11.204929989778796
31
0
0
LINE
5
628
100
AcDbEntity
8
0
100
AcDbLine
10
38.577362397129804
20
-11.204929989778796
30
0
11
38.577362397129804
21
-12.671238821947375
31
0
0
SPLINE
5
629
100
AcDbEntity
8
0
100
AcDbSpline
70
0
71
3
72
9
73
5
74
0
42
0.000000001
43
0.0000000001
44
0.0000000001
40
0
40
0
40
0
40
0
40
0.091882211865538896
40
0.17998682939354735
40
0.17998682939354735
40
0.17998682939354735
40
0.17998682939354735
10
38.577362397129804
20
-12.671238821947375
30
0
10
38.844425243359034
20
-12.821190344367842
30
0
10
39.367571061963829
20
-13.114928365419098
30
0
10
39.885403056762087
20
-13.417934634641494
30
0
10
40.138884880955487
20
-13.566257995569506
30
0
0
LINE
5
630
100
AcDbEntity
8
0
100
AcDbLine
10
40.138884880955487
20
-13.566257995569508
30
0
11
39.351776936466962
21
-15.000829142534533
31
0
0
SPLINE
5
631
100
AcDbEntity
8
0
100
AcDbSpline
70
0
71
3
72
9
73
5
74
0
42
0.000000001
43
0.0000000001
44
0.0000000001
40
0
40
0
40
0
40
0
40
0.041588168649506638
40
0.096268274715088031
40
0.096268274715088031
40
0.096268274715088031
40
0.096268274715088031
10
39.351776936466962
20
-15.000829142534533
30
0
10
39.24377749295904
20
-14.913832140429522
30
0
10
38.993780428064959
20
-14.712451517766944
30
0
10
38.728207222237536
20
-14.532022977448666
30
0
10
38.577362397129804
20
-14.429540080034533
30
0
0
LINE
5
632
100
AcDbEntity
8
0
100
AcDbLine
10
38.577362397129804
20
-14.429540080034533
30
0
11
38.577362397129804
21
-19.799656313860218
31
0
0
LINE
5
633
100
AcDbEntity
8
0
100
AcDbLine
10
38.577362397129804
20
-19.799656313860218
30
0
11
37.015838721211225
21
-19.799656313860218
31
0
0
LINE
5
634
100
AcDbEntity
8
0
100
AcDbLine
10
37.015838721211225
20
-19.799656313860218
30
0
11
37.015838721211225
21
-14.569187802278796
31
0
0
SPLINE
5
635
100
AcDbEntity
8
0
100
AcDbSpline
70
0
71
3
72
9
73
5
74
0
42
0.000000001
43
0.0000000001
44
0.0000000001
40
0
40
0
40
0
40
0
40
0.13277522365140768
40
0.26480810612087952
40
0.26480810612087952
40
0.26480810612087952
40
0.26480810612087952
10
37.015838721211225
20
-14.569187802278796
30
0
10
36.847936124810886
20
-14.979132291784572
30
0
10
36.513069668985651
20
-15.796729286881508
30
0
10
36.086131339247629
20
-16.570237085392403
30
0
10
35.873260596211225
20
-16.955906790697377
30
0
0
SPLINE
5
636
100
AcDbEntity
8
0
100
AcDbSpline
70
0
71
3
72
9
73
5
74
0
42
0.000000001
43
0.0000000001
44
0.0000000001
40
0
40
0
40
0
40
0
40
0.1258522530633408
40
0.2358540896779443
40
0.2358540896779443
40
0.2358540896779443
40
0.2358540896779443
10
35.873260596211225
20
-16.955906790697377
30
0
10
35.804829196707651
20
-16.542006818899562
30
0
10
35.6765849655362
20
-15.766335357404405
30
0
10
35.533667316575162
20
-14.993236157323516
30
0
10
35.467010834629804
20
-14.632664364778796
30
0
0
LWPOLYLINE
5
637
100
AcDbEntity
8
0
100
AcDbPolyline
90
4
70
1
43
0.0
10
47.514861920292645
20
-7.9803210916159539
10
40.342010357792645
20
-7.9803210916159539
10
40.342010357792645
20
-9.6307117166159539
10
47.514861920292645
20
-9.6307117166159539
0
LINE
5
638
100
AcDbEntity
8
0
100
AcDbLine
10
39.834197857792645
20
-11.154148620569506
30
0
11
47.99728522580412
21
-11.154148620569506
31
0
0
LINE
5
639
100
AcDbEntity
8
0
100
AcDbLine
10
47.99728522580412
20
-11.154148620569506
30
0
11
47.99728522580412
21
-12.804539245569506
31
0
0
LINE
5
640
100
AcDbEntity
8
0
100
AcDbLine
10
47.99728522580412
20
-12.804539245569506
30
0
11
44.798065522129804
21
-12.804539245569506
31
0
0
LINE
5
641
100
AcDbEntity
8
0
100
AcDbLine
10
44.798065522129804
20
-12.804539245569506
30
0
11
44.798065522129804
21
-18.238132637941639
31
0
0
SPLINE
5
642
100
AcDbEntity
8
0
100
AcDbSpline
70
0
71
3
72
9
73
5
74
0
42
0.000000001
43
0.0000000001
44
0.0000000001
40
0
40
0
40
0
40
0
40
0.060790008224029093
40
0.11329023116849457
40
0.11329023116849457
40
0.11329023116849457
40
0.11329023116849457
10
44.798065522129804
20
-18.238132637941639
30
0
10
44.787569714377817
20
-18.446134807548138
30
0
10
44.768009386599246
20
-18.833774397781884
30
0
10
44.532630571208557
20
-19.140282550830872
30
0
10
44.423552849705487
20
-19.282322567903798
30
0
0
SPLINE
5
643
100
AcDbEntity
8
0
100
AcDbSpline
70
0
71
3
72
9
73
5
74
0
42
0.000000001
43
0.0000000001
44
0.0000000001
40
0
40
0
40
0
40
0
40
0.053786008003923622
40
0.11699449431442786
40
0.11699449431442786
40
0.11699449431442786
40
0.11699449431442786
10
44.423552849705487
20
-19.282322567903798
30
0
10
44.276919364745453
20
-19.390977004759037
30
0
10
43.957964471844505
20
-19.627320458505793
30
0
10
43.561710641976475
20
-19.669147715047909
30
0
10
43.34762702267912
20
-19.69174568077306
30
0
0
SPLINE
5
644
100
AcDbEntity
8
0
100
AcDbSpline
70
0
71
3
72
9
73
5
74
0
42
0.000000001
43
0.0000000001
44
0.0000000001
40
0
40
0
40
0
40
0
40
0.082983201077329025
40
0.19145456147510059
40
0.19145456147510059
40
0.19145456147510059
40
0.19145456147510059
10
43.34762702267912
20
-19.69174568077306
30
0
10
43.071284704092946
20
-19.70464742702169
30
0
10
42.433721959645105
20
-19.734413670529133
30
0
10
41.795437202349177
20
-19.735541029674796
30
0
10
41.433807709629804
20
-19.736179751360218
30
0
0
SPLINE
5
645
100
AcDbEntity
8
0
100
AcDbSpline
70
0
71
3
72
9
73
5
74
0
42
0.000000001
43
0.0000000001
44
0.0000000001
40
0
40
0
40
0
40
0
40
0.097113907585788195
40
0.17977615712545392
40
0.17977615712545392
40
0.17977615712545392
40
0.17977615712545392
10
41.433807709629804
20
-19.736179751360218
30
0
10
41.377697161949449
20
-19.417333747599702
30
0
10
41.273825956609791
20
-18.827089665203605
30
0
10
41.1486089258566
20
-18.241013454668547
30
0
10
41.091033318455487
20
-17.971531790697377
30
0
0
SPLINE
5
646
100
AcDbEntity
8
0
100
AcDbSpline
70
0
71
3
72
9
73
5
74
0
42
0.000000001
43
0.0000000001
44
0.0000000001
40
0
40
0
40
0
40
0
40
0.063971528512341627
40
0.12080502057196647
40
0.12080502057196647
40
0.12080502057196647
40
0.12080502057196647
10
41.091033318455487
20
-17.971531790697377
30
0
10
41.303545890412551
20
-17.99002616035051
30
0
10
41.704858571601989
20
-18.024951270917185
30
0
10
42.107610699732987
20
-18.031790700125153
30
0
10
42.297088005955487
20
-18.035008353197377
30
0
0
SPLINE
5
647
100
AcDbEntity
8
0
100
AcDbSpline
70
0
71
3
72
9
73
5
74
0
42
0.000000001
43
0.0000000001
44
0.0000000001
40
0
40
0
40
0
40
0
40
0.057822992445610073
40
0.11243502928588872
40
0.11243502928588872
40
0.11243502928588872
40
0.11243502928588872
10
42.297088005955487
20
-18.035008353197377
30
0
10
42.511798973418458
20
-18.009850621517018
30
0
10
42.929297841838441
20
-17.960932186503335
30
0
10
42.999378113208365
20
-17.549366697746308
30
0
10
43.033417561466962
20
-17.349460762941639
30
0
0
LINE
5
648
100
AcDbEntity
8
0
100
AcDbLine
10
43.033417561466962
20
-17.349460762941639
30
0
11
43.033417561466962
21
-12.804539245569506
31
0
0
LINE
5
649
100
AcDbEntity
8
0
100
AcDbLine
10
43.033417561466962
20
-12.804539245569506
30
0
11
39.834197857792645
21
-12.804539245569506
31
0
0
LINE
5
650
100
AcDbEntity
8
0
100
AcDbLine
10
39.834197857792645
20
-12.804539245569506
30
0
11
39.834197857792645
21
-11.154148620569506
31
0
0
LINE
5
651
100
AcDbEntity
8
0
100
AcDbLine
10
40.849822857792645
20
-13.604344171488085
30
0
11
42.360564568455487
21
-14.035984915697375
31
0
0
SPLINE
5
652
100
AcDbEntity
8
0
100
AcDbSpline
70
0
71
3
72
9
73
5
74
0
42
0.000000001
43
0.0000000001
44
0.0000000001
40
0
40
0
40
0
40
0
40
0.24248913907359956
40
0.45413808600699307
40
0.45413808600699307
40
0.45413808600699307
40
0.45413808600699307
10
42.360564568455487
20
-14.035984915697375
30
0
10
42.111360471447583
20
-14.805423215200815
30
0
10
41.64464648964767
20
-16.246441307689111
30
0
10
41.050533914028975
20
-17.639626916976233
30
0
10
40.773650505955487
20
-18.288914603197377
30
0
0
SPLINE
5
653
100
AcDbEntity
8
0
100
AcDbSpline
70
0
71
3
72
9
73
5
74
0
42
0.000000001
43
0.0000000001
44
0.0000000001
40
0
40
0
40
0
40
0
40
0.085209881338581456
40
0.1618984861855004
40
0.1618984861855004
40
0.1618984861855004
40
0.1618984861855004
10
40.773650505955487
20
-18.288914603197377
30
0
10
40.518112106770218
20
-18.163990729627063
30
0
10
40.032590013082824
20
-17.926635792596951
30
0
10
39.518921002740711
20
-17.758963109919542
30
0
10
39.275604584629804
20
-17.679539364778798
30
0
0
SPLINE
5
654
100
AcDbEntity
8
0
100
AcDbSpline
70
0
71
3
72
9
73
5
74
0
42
0.000000001
43
0.0000000001
44
0.0000000001
40
0
40
0
40
0
40
0
40
0.20441442720060857
40
0.43717726861900641
40
0.43717726861900641
40
0.43717726861900641
40
0.43717726861900641
10
39.275604584629804
20
-17.679539364778798
30
0
10
39.55762465719453
20
-17.058648262267418
30
0
10
40.160775651515422
20
-15.730760206502239
30
0
10
40.61042147966716
20
-14.343142507237685
30
0
10
40.849822857792645
20
-13.604344171488085
30
0
0
SPLINE
5
655
100
AcDbEntity
8
0
100
AcDbSpline
70
0
71
3
72
9
73
5
74
0
42
0.000000001
43
0.0000000001
44
0.0000000001
40
0
40
0
40
0
40
0
40
0.21152321255979309
40
0.43080930650906579
40
0.43080930650906579
40
0.43080930650906579
40
0.43080930650906579
10
46.651579239781171
20
-13.705906313860217
30
0
10
46.917666630572285
20
-14.35894858716042
30
0
10
47.459606793593956
20
-15.688999721865253
30
0
10
47.942114059288812
20
-17.04175476703654
30
0
10
48.18771491330412
20
-17.730320137941639
30
0
0
LINE
5
656
100
AcDbEntity
8
0
100
AcDbLine
10
48.18771491330412
20
-17.730320137941639
30
0
11
46.626190045292645
21
-18.327000779115956
31
0
0
SPLINE
5
657
100
AcDbEntity
8
0
100
AcDbSpline
70
0
71
3
72
9
73
5
74
0
42
0.000000001
43
0.0000000001
44
0.0000000001
40
0
40
0
40
0
40
0
40
0.22663761892672202
40
0.43381488091717746
40
0.43381488091717746
40
0.43381488091717746
40
0.43381488091717746
10
46.626190045292645
20
-18.327000779115956
30
0
10
46.386342786505082
20
-17.610458091465681
30
0
10
45.927242878458131
20
-16.238899026438688
30
0
10
45.395015904296358
20
-14.894060447022493
30
0
10
45.14083991330412
20
-14.251804989778796
30
0
0
LINE
5
658
100
AcDbEntity
8
0
100
AcDbLine
10
45.140839913304106
20
-14.251804989778796
30
0
11
46.651579239781171
21
-13.705906313860217
31
0
0
LINE
5
659
100
AcDbEntity
8
0
100
AcDbLine
10
54.738494255955487
20
-7.3201638879416375
30
0
11
56.630095341618329
21
-7.6121575059531121
31
0
0
LINE
5
660
100
AcDbEntity
8
0
100
AcDbLine
10
56.630095341618329
20
-7.6121575059531121
30
0
11
56.058806279118329
21
-9.3387198867438226
31
0
0
LINE
5
661
100
AcDbEntity
8
0
100
AcDbLine
10
56.058806279118329
20
-9.3387198867438226
30
0
11
58.217009404118329
21
-9.3387198867438226
31
0
0
LINE
5
662
100
AcDbEntity
8
0
100
AcDbLine
10
58.217009404118329
20
-9.3387198867438226
30
0
11
58.217009404118329
21
-11.814305228197375
31
0
0
SPLINE
5
663
100
AcDbEntity
8
0
100
AcDbSpline
70
0
71
3
72
9
73
5
74
0
42
0.000000001
43
0.0000000001
44
0.0000000001
40
0
40
0
40
0
40
0
40
0.22241727784777682
40
0.49310690726728101
40
0.49310690726728101
40
0.49310690726728101
40
0.49310690726728101
10
58.217009404118329
20
-11.814305228197375
30
0
10
58.56640774460125
20
-11.159117574640378
30
0
10
59.341036122158179
20
-9.7065435630731951
30
0
10
59.877562453780698
20
-8.1495060128629468
30
0
10
60.172087052281171
20
-7.2947746934531121
30
0
0
LINE
5
664
100
AcDbEntity
8
0
100
AcDbLine
10
60.172087052281178
20
-7.2947746934531121
30
0
11
61.924039223606854
21
-7.7518064202902703
31
0
0
SPLINE
5
665
100
AcDbEntity
8
0
100
AcDbSpline
70
0
71
3
72
9
73
5
74
0
42
0.000000001
43
0.0000000001
44
0.0000000001
40
0
40
0
40
0
40
0
40
0.088327112732858995
40
0.1755109525765281
40
0.1755109525765281
40
0.1755109525765281
40
0.1755109525765281
10
61.924039223606854
20
-7.7518064202902703
30
0
10
61.829701427622716
20
-8.0307450772094917
30
0
10
61.642246908564388
20
-8.5850119141022283
30
0
10
61.431864549761357
20
-9.1309870926436094
30
0
10
61.327358582432538
20
-9.4021964492438226
30
0
0
LINE
5
666
100
AcDbEntity
8
0
100
AcDbLine
10
61.327358582432538
20
-9.4021964492438226
30
0
11
64.602753022129804
21
-9.4021964492438226
31
0
0
LINE
5
667
100
AcDbEntity
8
0
100
AcDbLine
10
64.602753022129804
20
-9.4021964492438226
30
0
11
64.456755021031171
21
-16.70834724327306
31
0
0
SPLINE
5
668
100
AcDbEntity
8
0
100
AcDbSpline
70
0
71
3
72
9
73
5
74
0
42
0.000000001
43
0.0000000001
44
0.0000000001
40
0
40
0
40
0
40
0
40
0.10058297723520328
40
0.16688853479453558
40
0.16688853479453558
40
0.16688853479453558
40
0.16688853479453558
10
64.456755021031171
20
-16.70834724327306
30
0
10
64.448601163607734
20
-17.044723465627591
30
0
10
64.43507218131144
20
-17.602843104074925
30
0
10
64.309764092346057
20
-18.146081413719173
30
0
10
64.259978630955487
20
-18.361912411653798
30
0
0
SPLINE
5
669
100
AcDbEntity
8
0
100
AcDbSpline
70
0
71
3
72
9
73
5
74
0
42
0.000000001
43
0.0000000001
44
0.0000000001
40
0
40
0
40
0
40
0
40
0.047833992998517316
40
0.093530948749881271
40
0.093530948749881271
40
0.093530948749881271
40
0.093530948749881271
10
64.259978630955487
20
-18.361912411653798
30
0
10
64.19867986631057
20
-18.511075174699883
30
0
10
64.078820928031817
20
-18.802736687178818
30
0
10
63.855116159155486
20
-19.024704373358766
30
0
10
63.745819428379804
20
-19.133152407610218
30
0
0
SPLINE
5
670
100
AcDbEntity
8
0
100
AcDbSpline
70
0
71
3
72
9
73
5
74
0
42
0.000000001
43
0.0000000001
44
0.0000000001
40
0
40
0
40
0
40
0
40
0.048756410685246214
40
0.10651123734048548
40
0.10651123734048548
40
0.10651123734048548
40
0.10651123734048548
10
63.745819428379804
20
-19.133152407610218
30
0
10
63.610356841772642
20
-19.225842952237223
30
0
10
63.314430880240842
20
-19.428330880680523
30
0
10
62.962358616503707
20
-19.500350262435653
30
0
10
62.771450379307538
20
-19.539402169191639
30
0
0
SPLINE
5
671
100
AcDbEntity
8
0
100
AcDbSpline
70
0
71
3
72
9
73
5
74
0
42
0.000000001
43
0.0000000001
44
0.0000000001
40
0
40
0
40
0
40
0
40
0.099748939578442233
40
0.27298152260395186
40
0.27298152260395186
40
0.27298152260395186
40
0.27298152260395186
10
62.771450379307538
20
-19.539402169191639
30
0
10
62.440243060879936
20
-19.57036242944088
30
0
10
61.533832642242487
20
-19.655090939024756
30
0
10
60.623087695407136
20
-19.650332488798405
30
0
10
60.045133927281171
20
-19.647312802278798
30
0
0
SPLINE
5
672
100
AcDbEntity
8
0
100
AcDbSpline
70
0
71
3
72
9
73
5
74
0
42
0.000000001
43
0.0000000001
44
0.0000000001
40
0
40
0
40
0
40
0
40
0.10600447675241852
40
0.19787292643317392
40
0.19787292643317392
40
0.19787292643317392
40
0.19787292643317392
10
60.045133927281171
20
-19.647312802278798
30
0
10
59.981390086870803
20
-19.299274871617527
30
0
10
59.862402845666374
20
-18.649610952134804
30
0
10
59.657735820192727
20
-18.021800157255406
30
0
10
59.562713005955487
20
-17.730320137941639
30
0
0
SPLINE
5
673
100
AcDbEntity
8
0
100
AcDbSpline
70
0
71
3
72
9
73
5
74
0
42
0.000000001
43
0.0000000001
44
0.0000000001
40
0
40
0
40
0
40
0
40
0.097128698402330335
40
0.2001369307352337
40
0.2001369307352337
40
0.2001369307352337
40
0.2001369307352337
10
59.562713005955487
20
-17.730320137941639
30
0
10
59.885792236774094
20
-17.752531459567052
30
0
10
60.551507794626005
20
-17.798298630452742
30
0
10
61.218784759169822
20
-17.803708229734472
30
0
10
61.562224724705487
20
-17.806492489778798
30
0
0
SPLINE
5
674
100
AcDbEntity
8
0
100
AcDbSpline
70
0
71
3
72
9
73
5
74
0
42
0.000000001
43
0.0000000001
44
0.0000000001
40
0
40
0
40
0
40
0
40
0.028459250448291208
40
0.053297194219139199
40
0.053297194219139199
40
0.053297194219139199
40
0.053297194219139199
10
61.562224724705487
20
-17.806492489778798
30
0
10
61.657431944899869
20
-17.804460466315653
30
0
10
61.835731711261744
20
-17.800654984882833
30
0
10
62.008542704157641
20
-17.757008488434572
30
0
10
62.089077332432538
20
-17.736668032610218
30
0
0
SPLINE
5
675
100
AcDbEntity
8
0
100
AcDbSpline
70
0
71
3
72
9
73
5
74
0
42
0.000000001
43
0.0000000001
44
0.0000000001
40
0
40
0
40
0
40
0
40
0.022066970628674708
40
0.042555055337822043
40
0.042555055337822043
40
0.042555055337822043
40
0.042555055337822043
10
62.089077332432538
20
-17.736668032610218
30
0
10
62.158866568068596
20
-17.711294018969792
30
0
10
62.29345163796566
20
-17.662361495662406
30
0
10
62.401869774100838
20
-17.56897981670852
30
0
10
62.454067566807538
20
-17.524021309816639
30
0
0
SPLINE
5
676
100
AcDbEntity
8
0
100
AcDbSpline
70
0
71
3
72
9
73
5
74
0
42
0.000000001
43
0.0000000001
44
0.0000000001
40
0
40
0
40
0
40
0
40
0.019318927749215727
40
0.037760340992994787
40
0.037760340992994787
40
0.037760340992994787
40
0.037760340992994787
10
62.454067566807538
20
-17.524021309816639
30
0
10
62.497628522671491
20
-17.475678476309625
30
0
10
62.582771785732277
20
-17.381188662926142
30
0
10
62.626377036654112
20
-17.261781347413439
30
0
10
62.647672989781171
20
-17.203465146028798
30
0
0
SPLINE
5
677
100
AcDbEntity
8
0
100
AcDbSpline
70
0
71
3
72
9
73
5
74
0
42
0.000000001
43
0.0000000001
44
0.0000000001
40
0
40
0
40
0
40
0
40
0.048145364705891154
40
0.15643437746791078
40
0.15643437746791078
40
0.15643437746791078
40
0.15643437746791078
10
62.647672989781171
20
-17.203465146028798
30
0
10
62.66454288859201
20
-17.043814626873932
30
0
10
62.719356724452254
20
-16.525076639759583
30
0
10
62.725761105514373
20
-16.003200955241788
30
0
10
62.730194428379804
20
-15.641941470110217
30
0
0
LINE
5
678
100
AcDbEntity
8
0
100
AcDbLine
10
62.730194428379804
20
-15.641941470110217
30
0
11
62.787319519932538
21
-13.045750302278796
31
0
0
SPLINE
5
679
100
AcDbEntity
8
0
100
AcDbSpline
70
0
71
3
72
9
73
5
74
0
42
0.000000001
43
0.0000000001
44
0.0000000001
40
0
40
0
40
0
40
0
40
0.10983091875914937
40
0.19679617300256175
40
0.19679617300256175
40
0.19679617300256175
40
0.19679617300256175
10
62.787319519932538
20
-13.045750302278796
30
0
10
62.794693724412909
20
-12.679714923553288
30
0
10
62.807906900056629
20
-12.023848956751273
30
0
10
62.81123874081527
20
-11.367861250258823
30
0
10
62.812711098606854
20
-11.077976864778796
30
0
0
LINE
5
680
100
AcDbEntity
8
0
100
AcDbLine
10
62.812711098606854
20
-11.077976864778794
30
0
11
60.603729584629804
21
-11.077976864778796
31
0
0
SPLINE
5
681
100
AcDbEntity
8
0
100
AcDbSpline
70
0
71
3
72
9
73
5
74
0
42
0.000000001
43
0.0000000001
44
0.0000000001
40
0
40
0
40
0
40
0
40
0.09765502663103208
40
0.19421443070573474
40
0.19421443070573474
40
0.19421443070573474
40
0.19421443070573474
10
60.603729584629804
20
-11.077976864778796
30
0
10
60.462410825191746
20
-11.371288134110461
30
0
10
60.181358806067315
20
-11.954619921096262
30
0
10
59.869905741349669
20
-12.522300289837196
30
0
10
59.715057709629804
20
-12.804539245569506
30
0
0
SPLINE
5
682
100
AcDbEntity
8
0
100
AcDbSpline
70
0
71
3
72
9
73
5
74
0
42
0.000000001
43
0.0000000001
44
0.0000000001
40
0
40
0
40
0
40
0
40
0.078144126270159486
40
0.16907708911359692
40
0.16907708911359692
40
0.16907708911359692
40
0.16907708911359692
10
59.715057709629804
20
-12.804539245569506
30
0
10
59.492056248103083
20
-12.669426741306992
30
0
10
59.009557565442485
20
-12.377089619965627
30
0
10
58.494186197718719
20
-12.147341196064652
30
0
10
58.217009404118329
20
-12.023778003656664
30
0
0
LINE
5
683
100
AcDbEntity
8
0
100
AcDbLine
10
58.217009404118329
20
-12.023778003656664
30
0
11
58.217009404118329
21
-19.583836239778798
31
0
0
LINE
5
684
100
AcDbEntity
8
0
100
AcDbLine
10
58.217009404118329
20
-19.583836239778798
30
0
11
56.452361443455487
21
-19.583836239778798
31
0
0
LINE
5
685
100
AcDbEntity
8
0
100
AcDbLine
10
56.452361443455487
20
-19.583836239778798
30
0
11
56.452361443455487
21
-18.669773978197377
31
0
0
LINE
5
686
100
AcDbEntity
8
0
100
AcDbLine
10
56.452361443455487
20
-18.669773978197377
30
0
11
54.649626114781171
21
-18.669773978197377
31
0
0
LINE
5
687
100
AcDbEntity
8
0
100
AcDbLine
10
54.649626114781171
20
-18.669773978197377
30
0
11
54.649626114781171
21
-19.66000739952306
31
0
0
LINE
5
688
100
AcDbEntity
8
0
100
AcDbLine
10
54.649626114781171
20
-19.66000739952306
30
0
11
52.884978154118329
21
-19.66000739952306
31
0
0
LINE
5
689
100
AcDbEntity
8
0
100
AcDbLine
10
52.884978154118329
20
-19.66000739952306
30
0
11
52.884978154118329
21
-9.3387198867438226
31
0
0
LINE
5
690
100
AcDbEntity
8
0
100
AcDbLine
10
52.884978154118329
20
-9.3387198867438226
30
0
11
54.224332669194013
21
-9.3387198867438226
31
0
0
SPLINE
5
691
100
AcDbEntity
8
0
100
AcDbSpline
70
0
71
3
72
9
73
5
74
0
42
0.000000001
43
0.0000000001
44
0.0000000001
40
0
40
0
40
0
40
0
40
0.11692758732435141
40
0.20836111150745956
40
0.20836111150745956
40
0.20836111150745956
40
0.20836111150745956
10
54.224332669194013
20
-9.3387198867438226
30
0
10
54.333673423075936
20
-8.9644415522581298
30
0
10
54.528515047137709
20
-8.2974898809620061
30
0
10
54.674453286632712
20
-7.6182357984405336
30
0
10
54.738494255955487
20
-7.3201638879416375
30
0
0
LWPOLYLINE
5
692
100
AcDbEntity
8
0
100
AcDbPolyline
90
4
70
1
43
0.0
10
54.649626114781171
20
-11.001805108988085
10
56.452361443455487
20
-11.001805108988085
10
56.452361443455487
20
-13.172703427278796
10
54.649626114781171
20
-13.172703427278796
0
LWPOLYLINE
5
693
100
AcDbEntity
8
0
100
AcDbPolyline
90
4
70
1
43
0.0
10
56.452361443455487
20
-17.006687563860218
10
54.649626114781171
20
-17.006687563860218
10
54.649626114781171
20
-14.835789841615954
10
56.452361443455487
20
-14.835789841615954
0
SPLINE
5
694
100
AcDbEntity
8
0
100
AcDbSpline
70
0
71
3
72
9
73
5
74
0
42
0.000000001
43
0.0000000001
44
0.0000000001
40
0
40
0
40
0
40
0
40
0.15371346982273296
40
0.33044370995993211
40
0.33044370995993211
40
0.33044370995993211
40
0.33044370995993211
10
60.210172036106854
20
-12.601414364778796
30
0
10
60.531369518902345
20
-13.000863012665643
30
0
10
61.221860000752329
20
-13.859573009248436
30
0
10
61.844787165344151
20
-14.768575993020189
30
0
10
62.177945473606854
20
-15.254735392534533
30
0
0
LINE
5
695
100
AcDbEntity
8
0
100
AcDbLine
10
62.177945473606862
20
-15.254735392534533
30
0
11
60.578338005955487
21
-16.321141165697377
31
0
0
SPLINE
5
696
100
AcDbEntity
8
0
100
AcDbSpline
70
0
71
3
72
9
73
5
74
0
42
0.000000001
43
0.0000000001
44
0.0000000001
40
0
40
0
40
0
40
0
40
0.17458297919145069
40
0.32726037187997348
40
0.32726037187997348
40
0.32726037187997348
40
0.32726037187997348
10
60.578338005955487
20
-16.321141165697377
30
0
10
60.271636828049047
20
-15.826181459376169
30
0
10
59.69671742867498
20
-14.898366512544216
30
0
10
59.042657495847372
20
-14.024654065150903
30
0
10
58.737517693455487
20
-13.617039364778796
30
0
0
LINE
5
697
100
AcDbEntity
8
0
100
AcDbLine
10
58.737517693455487
20
-13.617039364778794
30
0
11
60.210172036106854
21
-12.601414364778796
31
0
0
LINE
5
698
100
AcDbEntity
8
0
100
AcDbLine
10
69.566618302281171
20
-19.228367251360218
30
0
11
69.261928894932538
21
-17.539890450441639
31
0
0
SPLINE
5
699
100
AcDbEntity
8
0
100
AcDbSpline
70
0
71
3
72
9
73
5
74
0
42
0.000000001
43
0.0000000001
44
0.0000000001
40
0
40
0
40
0
40
0
40
0.23049310932049613
40
0.46973523776739229
40
0.46973523776739229
40
0.46973523776739229
40
0.46973523776739229
10
69.261928894932538
20
-17.539890450441639
30
0
10
70.025048446394919
20
-17.450524437462711
30
0
10
71.580253914393069
20
-17.268400271240417
30
0
10
73.13119534700364
20
-17.052945072970502
30
0
10
73.921109536106854
20
-16.943211001360218
30
0
0
SPLINE
5
700
100
AcDbEntity
8
0
100
AcDbSpline
70
0
71
3
72
9
73
5
74
0
42
0.000000001
43
0.0000000001
44
0.0000000001
40
0
40
0
40
0
40
0
40
0.036883444425520891
40
0.073733987899436804
40
0.073733987899436804
40
0.073733987899436804
40
0.073733987899436804
10
73.921109536106854
20
-16.943211001360218
30
0
10
73.913176308380145
20
-17.065905289082739
30
0
10
73.897316929563573
20
-17.31118441816545
30
0
10
73.887787260626084
20
-17.556790913386632
30
0
10
73.883024552281171
20
-17.679539364778798
30
0
0
LINE
5
701
100
AcDbEntity
8
0
100
AcDbLine
10
73.883024552281171
20
-17.679539364778794
30
0
11
74.543176987583905
21
-17.679539364778798
31
0
0
LINE
5
702
100
AcDbEntity
8
0
100
AcDbLine
10
74.543176987583905
20
-17.679539364778798
30
0
11
74.543176987583905
21
-10.436863941156664
31
0
0
SPLINE
5
703
100
AcDbEntity
8
0
100
AcDbSpline
70
0
71
3
72
9
73
5
74
0
42
0.000000001
43
0.0000000001
44
0.0000000001
40
0
40
0
40
0
40
0
40
0.25938385419073817
40
0.4949978084683031
40
0.4949978084683031
40
0.4949978084683031
40
0.4949978084683031
10
74.543176987583905
20
-10.436863941156664
30
0
10
74.091284686398978
20
-11.174231221030501
30
0
10
73.228911430946681
20
-12.581393546968425
30
0
10
72.287282319501585
20
-13.936747578168514
30
0
10
71.839076378758222
20
-14.581882399523058
30
0
0
LINE
5
704
100
AcDbEntity
8
0
100
AcDbLine
10
71.839076378758222
20
-14.581882399523058
30
0
11
74.073454239781171
21
-14.315282148325243
31
0
0
SPLINE
5
705
100
AcDbEntity
8
0
100
AcDbSpline
70
0
71
3
72
9
73
5
74
0
42
0.000000001
43
0.0000000001
44
0.0000000001
40
0
40
0
40
0
40
0
40
0.084293042248249739
40
0.15301281994682225
40
0.15301281994682225
40
0.15301281994682225
40
0.15301281994682225
10
74.073454239781171
20
-14.315282148325243
30
0
10
74.039686158112005
20
-14.594302226012896
30
0
10
73.978388697935202
20
-15.100793008289246
30
0
10
73.947621041618305
20
-15.610019644796784
30
0
10
73.933802941258222
20
-15.838719052278796
30
0
0
SPLINE
5
706
100
AcDbEntity
8
0
100
AcDbSpline
70
0
71
3
72
9
73
5
74
0
42
0.000000001
43
0.0000000001
44
0.0000000001
40
0
40
0
40
0
40
0
40
0.26179061148177152
40
0.39144662600357377
40
0.39144662600357377
40
0.39144662600357377
40
0.39144662600357377
10
73.933802941258222
20
-15.838719052278796
30
0
10
73.064047021550365
20
-15.921351576057738
30
0
10
71.763530481674408
20
-16.044909187418749
30
0
10
70.485158476127594
20
-16.309630585170744
30
0
10
70.061732628758222
20
-16.397312325441639
30
0
0
LINE
5
707
100
AcDbEntity
8
0
100
AcDbLine
10
70.061732628758222
20
-16.397312325441639
30
0
11
69.439665177281171
21
-14.873876017534533
31
0
0
SPLINE
5
708
100
AcDbEntity
8
0
100
AcDbSpline
70
0
71
3
72
9
73
5
74
0
42
0.000000001
43
0.0000000001
44
0.0000000001
40
0
40
0
40
0
40
0
40
0.11180688581202601
40
0.30580957044643392
40
0.30580957044643392
40
0.30580957044643392
40
0.30580957044643392
10
69.439665177281171
20
-14.873876017534533
30
0
10
69.719882197244715
20
-14.626111871076697
30
0
10
70.486320202242922
20
-13.948437623645427
30
0
10
71.042136111625098
20
-13.085425246847212
30
0
10
71.394740441258222
20
-12.537938398325243
30
0
0
SPLINE
5
709
100
AcDbEntity
8
0
100
AcDbSpline
70
0
71
3
72
9
73
5
74
0
42
0.000000001
43
0.0000000001
44
0.0000000001
40
0
40
0
40
0
40
0
40
0.10347896669640795
40
0.16777915410944927
40
0.16777915410944927
40
0.16777915410944927
40
0.16777915410944927
10
71.394740441258222
20
-12.537938398325243
30
0
10
71.049359983315838
20
-12.553976186379849
30
0
10
70.489365590933502
20
-12.579979601368354
30
0
10
69.941588247123846
20
-12.696433237508614
30
0
10
69.731656411106854
20
-12.741063279115954
30
0
0
LINE
5
710
100
AcDbEntity
8
0
100
AcDbLine
10
69.73165641110684
20
-12.741063279115956
30
0
11
69.223843911106854
21
-11.255711358988085
31
0
0
SPLINE
5
711
100
AcDbEntity
8
0
100
AcDbSpline
70
0
71
3
72
9
73
5
74
0
42
0.000000001
43
0.0000000001
44
0.0000000001
40
0
40
0
40
0
40
0
40
0.15431244500742422
40
0.47097602521030324
40
0.47097602521030324
40
0.47097602521030324
40
0.47097602521030324
10
69.223843911106854
20
-11.255711358988085
30
0
10
69.546850190680416
20
-10.85331942401125
30
0
10
70.532695588076663
20
-9.625181576134139
30
0
10
71.15444185748089
20
-8.1709632519755715
30
0
10
71.572476723606854
20
-7.1932107629416375
30
0
0
LINE
5
712
100
AcDbEntity
8
0
100
AcDbLine
10
71.572476723606854
20
-7.1932107629416375
30
0
11
73.184782364781171
21
-7.8152817906973748
31
0
0
SPLINE
5
713
100
AcDbEntity
8
0
100
AcDbSpline
70
0
71
3
72
9
73
5
74
0
42
0.000000001
43
0.0000000001
44
0.0000000001
40
0
40
0
40
0
40
0
40
0.20337274593706606
40
0.39062970146858411
40
0.39062970146858411
40
0.39062970146858411
40
0.39062970146858411
10
73.184782364781171
20
-7.8152817906973748
30
0
10
72.848167868105492
20
-8.4038045535180093
30
0
10
72.201613091355284
20
-9.5342139900864282
30
0
10
71.510313592223241
20
-10.637810907886166
30
0
10
71.178923943455487
20
-11.166844409906664
30
0
0
LINE
5
714
100
AcDbEntity
8
0
100
AcDbLine
10
71.178923943455487
20
-11.166844409906664
30
0
11
72.289763787205487
21
-11.109715742075243
31
0
0
SPLINE
5
715
100
AcDbEntity
8
0
100
AcDbSpline
70
0
71
3
72
9
73
5
74
0
42
0.000000001
43
0.0000000001
44
0.0000000001
40
0
40
0
40
0
40
0
40
0.083949215030348162
40
0.17079285504334993
40
0.17079285504334993
40
0.17079285504334993
40
0.17079285504334993
10
72.289763787205487
20
-11.109715742075243
30
0
10
72.430275620066325
20
-10.867694005658528
30
0
10
72.716143892842922
20
-10.375306038359284
30
0
10
72.984734564566821
20
-9.8732822923105452
30
0
10
73.121305802281171
20
-9.6180165233252435
30
0
0
LINE
5
716
100
AcDbEntity
8
0
100
AcDbLine
10
73.121305802281171
20
-9.6180165233252435
30
0
11
74.543176987583905
21
-10.297215622865954
31
0
0
LINE
5
717
100
AcDbEntity
8
0
100
AcDbLine
10
74.543176987583905
20
-10.297215622865954
30
0
11
74.543176987583905
21
-7.8152817906973748
31
0
0
LINE
5
718
100
AcDbEntity
8
0
100
AcDbLine
10
74.543176987583905
20
-7.8152817906973748
30
0
11
81.081262925083905
21
-7.8152817906973748
31
0
0
LINE
5
719
100
AcDbEntity
8
0
100
AcDbLine
10
81.081262925083905
20
-7.8152817906973748
30
0
11
81.081262925083905
21
-17.679539364778798
31
0
0
LINE
5
720
100
AcDbEntity
8
0
100
AcDbLine
10
81.081262925083905
20
-17.679539364778798
30
0
11
81.881071427281171
21
-17.679539364778798
31
0
0
LINE
5
721
100
AcDbEntity
8
0
100
AcDbLine
10
81.881071427281171
20
-17.679539364778798
30
0
11
81.881071427281171
21
-19.317234200441639
31
0
0
LINE
5
722
100
AcDbEntity
8
0
100
AcDbLine
10
81.881071427281171
20
-19.317234200441639
30
0
11
73.654509880955487
21
-19.317234200441639
31
0
0
LINE
5
723
100
AcDbEntity
8
0
100
AcDbLine
10
73.654509880955487
20
-19.317234200441639
30
0
11
73.654509880955487
21
-18.625339907610218
31
0
0
LINE
5
724
100
AcDbEntity
8
0
100
AcDbLine
10
73.654509880955487
20
-18.625339907610218
30
0
11
69.566618302281171
21
-19.228367251360218
31
0
0
LWPOLYLINE
5
725
100
AcDbEntity
8
0
100
AcDbPolyline
90
4
70
1
43
0.0
10
76.320520737583905
20
-9.4529772224066644
10
79.303919175083905
20
-9.4529772224066644
10
79.303919175083905
20
-11.116063040697375
10
76.320520737583905
20
-11.116063040697375
0
LWPOLYLINE
5
726
100
AcDbEntity
8
0
100
AcDbPolyline
90
4
70
1
43
0.0
10
79.303919175083905
20
-14.378758114778796
10
76.320520737583905
20
-14.378758114778796
10
76.320520737583905
20
-12.715672296488085
10
79.303919175083905
20
-12.715672296488085
0
LWPOLYLINE
5
727
100
AcDbEntity
8
0
100
AcDbPolyline
90
4
70
1
43
0.0
10
79.303919175083905
20
-17.679539364778798
10
76.320520737583905
20
-17.679539364778798
10
76.320520737583905
20
-15.978367966615954
10
79.303919175083905
20
-15.978367966615954
0
SPLINE
5
728
100
AcDbEntity
8
0
100
AcDbSpline
70
0
71
3
72
9
73
5
74
0
42
0.000000001
43
0.0000000001
44
0.0000000001
40
0
40
0
40
0
40
0
40
0.10126064773400037
40
0.18790544186170716
40
0.18790544186170716
40
0.18790544186170716
40
0.18790544186170716
10
89.206267693455487
20
-18.073094529115956
30
0
10
89.164497320583592
20
-17.73798845908351
30
0
10
89.086985665791119
20
-17.116145170806355
30
0
10
88.960093916907809
20
-16.502524244588852
30
0
10
88.901583054478436
20
-16.219578427278798
30
0
0
SPLINE
5
729
100
AcDbEntity
8
0
100
AcDbSpline
70
0
71
3
72
9
73
5
74
0
42
0.000000001
43
0.0000000001
44
0.0000000001
40
0
40
0
40
0
40
0
40
0.054631349814030138
40
0.095989877491733572
40
0.095989877491733572
40
0.095989877491733572
40
0.095989877491733572
10
88.901583054478436
20
-16.219578427278798
30
0
10
89.080915576274265
20
-16.252692408129118
30
0
10
89.396011338250901
20
-16.310875245930237
30
0
10
89.715902213049205
20
-16.326922695780151
30
0
10
89.853731491978436
20
-16.333836955034535
30
0
0
SPLINE
5
730
100
AcDbEntity
8
0
100
AcDbSpline
70
0
71
3
72
9
73
5
74
0
42
0.000000001
43
0.0000000001
44
0.0000000001
40
0
40
0
40
0
40
0
40
0.055834892310350728
40
0.11166497370024225
40
0.11166497370024225
40
0.11166497370024225
40
0.11166497370024225
10
89.853731491978436
20
-16.333836955034535
30
0
10
90.055665009606088
20
-16.305806444128738
30
0
10
90.459514645596272
20
-16.249747837519408
30
0
10
90.569818407061092
20
-15.857233744953795
30
0
10
90.624967911656171
20
-15.660985154115954
30
0
0
SPLINE
5
731
100
AcDbEntity
8
0
100
AcDbSpline
70
0
71
3
72
9
73
5
74
0
42
0.000000001
43
0.0000000001
44
0.0000000001
40
0
40
0
40
0
40
0
40
0.077116259529528441
40
0.17299351326294737
40
0.17299351326294737
40
0.17299351326294737
40
0.17299351326294737
10
90.624967911656171
20
-15.660985154115954
30
0
10
90.651732099129433
20
-15.405176450247325
30
0
10
90.71177171786708
20
-14.831325401513167
30
0
10
90.715143219368613
20
-14.254250989331844
30
0
10
90.71701178830412
20
-13.934422177278796
30
0
0
LINE
5
732
100
AcDbEntity
8
0
100
AcDbLine
10
90.71701178830412
20
-13.934422177278798
30
0
11
88.863493302281171
21
-13.934422177278796
31
0
0
SPLINE
5
733
100
AcDbEntity
8
0
100
AcDbSpline
70
0
71
3
72
9
73
5
74
0
42
0.000000001
43
0.0000000001
44
0.0000000001
40
0
40
0
40
0
40
0
40
0.34616506894692112
40
0.60860775982338966
40
0.60860775982338966
40
0.60860775982338966
40
0.60860775982338966
10
88.863493302281171
20
-13.934422177278796
30
0
10
88.841738176257394
20
-15.102929678859997
30
0
10
88.803489549513245
20
-17.157333189409488
30
0
10
87.976127244447198
20
-19.030149968732474
30
0
10
87.619353630955487
20
-19.837742489778798
30
0
0
SPLINE
5
734
100
AcDbEntity
8
0
100
AcDbSpline
70
0
71
3
72
9
73
5
74
0
42
0.000000001
43
0.0000000001
44
0.0000000001
40
0
40
0
40
0
40
0
40
0.096678455337756555
40
0.19482916411545037
40
0.19482916411545037
40
0.19482916411545037
40
0.19482916411545037
10
87.619353630955487
20
-19.837742489778798
30
0
10
87.381381236259898
20
-19.620140034397998
30
0
10
86.901812519743686
20
-19.181621397094595
30
0
10
86.382783351490758
20
-18.790593169509414
30
0
10
86.121307709629804
20
-18.593601626360218
30
0
0
SPLINE
5
735
100
AcDbEntity
8
0
100
AcDbSpline
70
0
71
3
72
9
73
5
74
0
42
0.000000001
43
0.0000000001
44
0.0000000001
40
0
40
0
40
0
40
0
40
0.2231065949850356
40
0.50720886134665544
40
0.50720886134665544
40
0.50720886134665544
40
0.50720886134665544
10
86.121307709629804
20
-18.593601626360218
30
0
10
86.428248840949763
20
-17.908469875329185
30
0
10
87.126046509045068
20
-16.35089648608805
30
0
10
87.165574886344572
20
-14.639255343724113
30
0
10
87.187715866978436
20
-13.680515927278796
30
0
0
LINE
5
736
100
AcDbEntity
8
0
100
AcDbLine
10
87.187715866978436
20
-13.680515927278796
30
0
11
87.187715866978436
21
-9.3768054666159539
31
0
0
LINE
5
737
100
AcDbEntity
8
0
100
AcDbLine
10
87.187715866978436
20
-9.3768054666159539
30
0
11
93.148161271031171
21
-9.3768054666159539
31
0
0
LINE
5
738
100
AcDbEntity
8
0
100
AcDbLine
10
93.148161271031171
20
-9.3768054666159539
30
0
11
93.091036179478436
21
-7.2820789041159539
31
0
0
LINE
5
739
100
AcDbEntity
8
0
100
AcDbLine
10
93.091036179478436
20
-7.2820789041159539
30
0
11
94.893766739781171
21
-7.2820789041159539
31
0
0
LINE
5
740
100
AcDbEntity
8
0
100
AcDbLine
10
94.893766739781171
20
-7.2820789041159539
30
0
11
94.912811615879804
21
-9.3768054666159539
31
0
0
LINE
5
741
100
AcDbEntity
8
0
100
AcDbLine
10
94.912811615879804
20
-9.3768054666159539
30
0
11
96.645723679478436
21
-9.3768054666159539
31
0
0
SPLINE
5
742
100
AcDbEntity
8
0
100
AcDbSpline
70
0
71
3
72
9
73
5
74
0
42
0.000000001
43
0.0000000001
44
0.0000000001
40
0
40
0
40
0
40
0
40
0.070485059645260043
40
0.17053226637861441
40
0.17053226637861441
40
0.17053226637861441
40
0.17053226637861441
10
96.645723679478436
20
-9.3768054666159539
30
0
10
96.500667906858752
20
-9.1919567864689782
30
0
10
96.149718503103756
20
-8.7447320196714724
30
0
10
95.78222296806004
20
-8.3109707928427845
30
0
10
95.566622116978436
20
-8.0564934434531121
30
0
0
LINE
5
743
100
AcDbEntity
8
0
100
AcDbLine
10
95.566622116978422
20
-8.0564934434531121
30
0
11
96.899629929478436
21
-7.3328596772787957
31
0
0
SPLINE
5
744
100
AcDbEntity
8
0
100
AcDbSpline
70
0
71
3
72
9
73
5
74
0
42
0.000000001
43
0.0000000001
44
0.0000000001
40
0
40
0
40
0
40
0
40
0.0821065327979668
40
0.19735673831419215
40
0.19735673831419215
40
0.19735673831419215
40
0.19735673831419215
10
96.899629929478436
20
-7.3328596772787957
30
0
10
97.080832166970779
20
-7.5380164548060558
30
0
10
97.516381950259301
20
-8.0311449681663625
30
0
10
97.928498130211551
20
-8.5440701845167162
30
0
10
98.169161179478436
20
-8.843602580034533
30
0
0
LINE
5
745
100
AcDbEntity
8
0
100
AcDbLine
10
98.169161179478465
20
-8.843602580034533
30
0
11
97.19162116330412
21
-9.3768054666159539
31
0
0
LINE
5
746
100
AcDbEntity
8
0
100
AcDbLine
10
97.19162116330412
20
-9.3768054666159539
30
0
11
98.588100769932538
21
-9.3768054666159539
31
0
0
LINE
5
747
100
AcDbEntity
8
0
100
AcDbLine
10
98.588100769932538
20
-9.3768054666159539
30
0
11
98.588100769932538
21
-10.900242966615954
31
0
0
LINE
5
748
100
AcDbEntity
8
0
100
AcDbLine
10
98.588100769932538
20
-10.900242966615954
30
0
11
94.944549897129804
21
-10.900242966615954
31
0
0
SPLINE
5
749
100
AcDbEntity
8
0
100
AcDbSpline
70
0
71
3
72
9
73
5
74
0
42
0.000000001
43
0.0000000001
44
0.0000000001
40
0
40
0
40
0
40
0
40
0.18451174072053367
40
0.34335434942788551
40
0.34335434942788551
40
0.34335434942788551
40
0.34335434942788551
10
94.944549897129804
20
-10.900242966615954
30
0
10
94.968832402708898
20
-11.515118669173328
30
0
10
95.014019250293899
20
-12.659329037609279
30
0
10
95.153140665974718
20
-13.795851404692772
30
0
10
95.217501023228436
20
-14.321629446947375
30
0
0
SPLINE
5
750
100
AcDbEntity
8
0
100
AcDbSpline
70
0
71
3
72
9
73
5
74
0
42
0.000000001
43
0.0000000001
44
0.0000000001
40
0
40
0
40
0
40
0
40
0.15600313872676561
40
0.3174768208234377
40
0.3174768208234377
40
0.3174768208234377
40
0.3174768208234377
10
95.217501023228436
20
-14.321629446947375
30
0
10
95.490934557891563
20
-13.878650527600861
30
0
10
96.047390088208871
20
-12.977158800230868
30
0
10
96.486077139013545
20
-12.012800917379586
30
0
10
96.709200241978436
20
-11.522313398325243
30
0
0
LINE
5
751
100
AcDbEntity
8
0
100
AcDbLine
10
96.709200241978436
20
-11.522313398325243
30
0
11
98.27072272580412
21
-12.245945972406664
31
0
0
SPLINE
5
752
100
AcDbEntity
8
0
100
AcDbSpline
70
0
71
3
72
9
73
5
74
0
42
0.000000001
43
0.0000000001
44
0.0000000001
40
0
40
0
40
0
40
0
40
0.26096392553225217
40
0.50383566800646418
40
0.50383566800646418
40
0.50383566800646418
40
0.50383566800646418
10
98.27072272580412
20
-12.245945972406664
30
0
10
97.895415064096071
20
-13.032504086267043
30
0
10
97.170819179592286
20
-14.551089583915722
30
0
10
96.212603796416744
20
-15.933873140211416
30
0
10
95.750700333531171
20
-16.600437802278798
30
0
0
SPLINE
5
753
100
AcDbEntity
8
0
100
AcDbSpline
70
0
71
3
72
9
73
5
74
0
42
0.000000001
43
0.0000000001
44
0.0000000001
40
0
40
0
40
0
40
0
40
0.10326531574412483
40
0.15420748174768167
40
0.15420748174768167
40
0.15420748174768167
40
0.15420748174768167
10
95.750700333531171
20
-16.600437802278798
30
0
10
95.860382334162153
20
-16.943486878145166
30
0
10
96.024171937558705
20
-17.455766666610661
30
0
10
96.46275033687283
20
-17.743258393005046
30
0
10
96.607633927281171
20
-17.838230771028798
30
0
0
SPLINE
5
754
100
AcDbEntity
8
0
100
AcDbSpline
70
0
71
3
72
9
73
5
74
0
42
0.000000001
43
0.0000000001
44
0.0000000001
40
0
40
0
40
0
40
0
40
0.014102490696444061
40
0.03162534513553051
40
0.03162534513553051
40
0.03162534513553051
40
0.03162534513553051
10
96.607633927281171
20
-17.838230771028798
30
0
10
96.655521686562608
20
-17.827728166480973
30
0
10
96.762911717702579
20
-17.804175696155244
30
0
10
96.818208265267373
20
-17.707638146946245
30
0
10
96.848846772129804
20
-17.654148978197377
30
0
0
SPLINE
5
755
100
AcDbEntity
8
0
100
AcDbSpline
70
0
71
3
72
9
73
5
74
0
42
0.000000001
43
0.0000000001
44
0.0000000001
40
0
40
0
40
0
40
0
40
0.033654215437931623
40
0.094240634028387935
40
0.094240634028387935
40
0.094240634028387935
40
0.094240634028387935
10
96.848846772129804
20
-17.654148978197377
30
0
10
96.884501394279823
20
-17.54760661926144
30
0
10
96.984343692004927
20
-17.249260057728296
30
0
10
97.029372644830062
20
-16.937402480767265
30
0
10
97.058321335728436
20
-16.736912173235218
30
0
0
SPLINE
5
756
100
AcDbEntity
8
0
100
AcDbSpline
70
0
71
3
72
9
73
5
74
0
42
0.000000001
43
0.0000000001
44
0.0000000001
40
0
40
0
40
0
40
0
40
0.068871862245317703
40
0.12728606952465504
40
0.12728606952465504
40
0.12728606952465504
40
0.12728606952465504
10
97.058321335728436
20
-16.736912173235218
30
0
10
97.091742809038394
20
-16.50958986663597
30
0
10
97.1535109656797
20
-16.089462372199534
30
0
10
97.170929338566452
20
-15.665239916696406
30
0
10
97.178922989781171
20
-15.470555466615954
30
0
0
SPLINE
5
757
100
AcDbEntity
8
0
100
AcDbSpline
70
0
71
3
72
9
73
5
74
0
42
0.000000001
43
0.0000000001
44
0.0000000001
40
0
40
0
40
0
40
0
40
0.077931835053587181
40
0.18008689291358343
40
0.18008689291358343
40
0.18008689291358343
40
0.18008689291358343
10
97.178922989781171
20
-15.470555466615954
30
0
10
97.408113581985404
20
-15.593093173997289
30
0
10
97.937733109187633
20
-15.876256466275535
30
0
10
98.490415411796135
20
-16.111516536131933
30
0
10
98.803926804478436
20
-16.244968813860218
30
0
0
SPLINE
5
758
100
AcDbEntity
8
0
100
AcDbSpline
70
0
71
3
72
9
73
5
74
0
42
0.000000001
43
0.0000000001
44
0.0000000001
40
0
40
0
40
0
40
0
40
0.079953409340691992
40
0.18322975125340196
40
0.18322975125340196
40
0.18322975125340196
40
0.18322975125340196
10
98.803926804478436
20
-16.244968813860218
30
0
10
98.776304150056717
20
-16.51033479608148
30
0
10
98.713001132206855
20
-17.118475753602482
30
0
10
98.568174594610142
20
-17.712746837613611
30
0
10
98.486543991978436
20
-18.047704142534535
30
0
0
SPLINE
5
759
100
AcDbEntity
8
0
100
AcDbSpline
70
0
71
3
72
9
73
5
74
0
42
0.000000001
43
0.0000000001
44
0.0000000001
40
0
40
0
40
0
40
0
40
0.09711935247524113
40
0.16291961245255471
40
0.16291961245255471
40
0.16291961245255471
40
0.16291961245255471
10
98.486543991978436
20
-18.047704142534535
30
0
10
98.406972857266922
20
-18.368728134860362
30
0
10
98.273490723179236
20
-18.907252157979535
30
0
10
97.900753726775292
20
-19.31232434034813
30
0
10
97.750212052281171
20
-19.475925606691639
30
0
0
SPLINE
5
760
100
AcDbEntity
8
0
100
AcDbSpline
70
0
71
3
72
9
73
5
74
0
42
0.000000001
43
0.0000000001
44
0.0000000001
40
0
40
0
40
0
40
0
40
0.051453237912269398
40
0.098283099670125856
40
0.098283099670125856
40
0.098283099670125856
40
0.098283099670125856
10
97.750212052281171
20
-19.475925606691639
30
0
10
97.601597218932341
20
-19.566584283200022
30
0
10
97.317721469394712
20
-19.739755420737133
30
0
10
96.987259961421884
20
-19.771727623890182
30
0
10
96.829801896031171
20
-19.786961716615956
30
0
0
SPLINE
5
761
100
AcDbEntity
8
0
100
AcDbSpline
70
0
71
3
72
9
73
5
74
0
42
0.000000001
43
0.0000000001
44
0.0000000001
40
0
40
0
40
0
40
0
40
0.13363949442374237
40
0.29889709434079459
40
0.29889709434079459
40
0.29889709434079459
40
0.29889709434079459
10
96.829801896031171
20
-19.786961716615956
30
0
10
96.375836518846128
20
-19.688949249668735
30
0
10
95.360500949394691
20
-19.469735298687993
30
0
10
94.83103567935288
20
-18.562178814572803
30
0
10
94.538298943455487
20
-18.060398739778798
30
0
0
SPLINE
5
762
100
AcDbEntity
8
0
100
AcDbSpline
70
0
71
3
72
9
73
5
74
0
42
0.000000001
43
0.0000000001
44
0.0000000001
40
0
40
0
40
0
40
0
40
0.13285849903663396
40
0.26257485000569281
40
0.26257485000569281
40
0.26257485000569281
40
0.26257485000569281
10
94.538298943455487
20
-18.060398739778798
30
0
10
94.231454646330519
20
-18.380402755572852
30
0
10
93.625023022633812
20
-19.012842584846958
30
0
10
92.94470093614666
20
-19.564978264334524
30
0
10
92.608610489781171
20
-19.837742489778798
30
0
0
SPLINE
5
763
100
AcDbEntity
8
0
100
AcDbSpline
70
0
71
3
72
9
73
5
74
0
42
0.000000001
43
0.0000000001
44
0.0000000001
40
0
40
0
40
0
40
0
40
0.095307843884129009
40
0.18873685403522755
40
0.18873685403522755
40
0.18873685403522755
40
0.18873685403522755
10
92.608610489781171
20
-19.837742489778798
30
0
10
92.402455884021762
20
-19.595427113334964
30
0
10
91.994210663584226
20
-19.115573200261743
30
0
10
91.522037327943821
20
-18.698500497871557
30
0
10
91.28830085080412
20
-18.492040080034535
30
0
0
SPLINE
5
764
100
AcDbEntity
8
0
100
AcDbSpline
70
0
71
3
72
9
73
5
74
0
42
0.000000001
43
0.0000000001
44
0.0000000001
40
0
40
0
40
0
40
0
40
0.17259700842209338
40
0.34654268617426248
40
0.34654268617426248
40
0.34654268617426248
40
0.34654268617426248
10
91.28830085080412
20
-18.492040080034535
30
0
10
91.746070913541786
20
-18.141535358600812
30
0
10
92.665188044490691
20
-17.437787079341213
30
0
10
93.447419094002967
20
-16.584437287361855
30
0
10
93.840056755955487
20
-16.156101864778798
30
0
0
SPLINE
5
765
100
AcDbEntity
8
0
100
AcDbSpline
70
0
71
3
72
9
73
5
74
0
42
0.000000001
43
0.0000000001
44
0.0000000001
40
0
40
0
40
0
40
0
40
0.22992223002275133
40
0.52985564839482791
40
0.52985564839482791
40
0.52985564839482791
40
0.52985564839482791
10
93.840056755955487
20
-16.156101864778798
30
0
10
93.695627468557504
20
-15.402594024466866
30
0
10
93.362790257845489
20
-13.666135634777635
30
0
10
93.266272999425155
20
-11.899995404960668
30
0
10
93.211637833531171
20
-10.900242966615954
30
0
0
LINE
5
766
100
AcDbEntity
8
0
100
AcDbLine
10
93.211637833531171
20
-10.900242966615954
30
0
11
88.863493302281171
21
-10.900242966615954
31
0
0
LINE
5
767
100
AcDbEntity
8
0
100
AcDbLine
10
88.863493302281171
20
-10.900242966615954
30
0
11
88.863493302281171
21
-12.398289483988085
31
0
0
LINE
5
768
100
AcDbEntity
8
0
100
AcDbLine
10
88.863493302281171
20
-12.398289483988085
30
0
11
92.481657364781171
21
-12.398289483988085
31
0
0
SPLINE
5
769
100
AcDbEntity
8
0
100
AcDbSpline
70
0
71
3
72
9
73
5
74
0
42
0.000000001
43
0.0000000001
44
0.0000000001
40
0
40
0
40
0
40
0
40
0.064853385279641601
40
0.22134805054830931
40
0.22134805054830931
40
0.22134805054830931
40
0.22134805054830931
10
92.481657364781171
20
-12.398289483988085
30
0
10
92.475535091811025
20
-12.614381650599144
30
0
10
92.45463944879981
20
-13.351915699313377
30
0
10
92.425845163870719
20
-14.089189467552064
30
0
10
92.405487397129804
20
-14.610447329485217
30
0
0
SPLINE
5
770
100
AcDbEntity
8
0
100
AcDbSpline
70
0
71
3
72
9
73
5
74
0
42
0.000000001
43
0.0000000001
44
0.0000000001
40
0
40
0
40
0
40
0
40
0.16368288147768997
40
0.25174599579502721
40
0.25174599579502721
40
0.25174599579502721
40
0.25174599579502721
10
92.405487397129804
20
-14.610447329485217
30
0
10
92.394925094885267
20
-15.1595590057929
30
0
10
92.378680162779744
20
-16.004098547782792
30
0
10
92.144597366980236
20
-16.812699496795286
30
0
10
92.062713005955487
20
-17.095555705034535
30
0
0
SPLINE
5
771
100
AcDbEntity
8
0
100
AcDbSpline
70
0
71
3
72
9
73
5
74
0
42
0.000000001
43
0.0000000001
44
0.0000000001
40
0
40
0
40
0
40
0
40
0.052041651016638185
40
0.10308954878746635
40
0.10308954878746635
40
0.10308954878746635
40
0.10308954878746635
10
92.062713005955487
20
-17.095555705034535
30
0
10
91.968056008108121
20
-17.242521405408937
30
0
10
91.780549520380802
20
-17.533646445503983
30
0
10
91.508638296109666
20
-17.747970764288322
30
0
10
91.373993256504804
20
-17.854099911653798
30
0
0
SPLINE
5
772
100
AcDbEntity
8
0
100
AcDbSpline
70
0
71
3
72
9
73
5
74
0
42
0.000000001
43
0.0000000001
44
0.0000000001
40
0
40
0
40
0
40
0
40
0.077969787292720374
40
0.21945337015163174
40
0.21945337015163174
40
0.21945337015163174
40
0.21945337015163174
10
91.373993256504804
20
-17.854099911653798
30
0
10
91.124575737835315
20
-17.932981090987575
30
0
10
90.42256644747539
20
-18.154999660582266
30
0
10
89.683044327463762
20
-18.105200500415727
30
0
10
89.206267693455487
20
-18.073094529115956
30
0
0
LINE
5
773
100
AcDbEntity
8
0
100
AcDbLine
10
-0.80901973443030961
20
-17.98968032817432
30
0
11
-0.40936079093132349
21
-17.98968032817432
31
0
0
LWPOLYLINE
5
774
100
AcDbEntity
8
0
100
AcDbPolyline
90
4
70
1
43
0.0
10
120.93911430316993
20
-17.342863643305446
10
119.37113235816626
20
-11.491075359201155
10
120.40380087889055
20
-11.214372663024054
10
121.97178282389422
20
-17.066160947128328
0
LINE
5
775
100
AcDbEntity
8
0
100
AcDbLine
10
112.9594810465686
20
-16.297189096811604
30
0
11
112.77035283500327
21
-15.591353002105166
31
0
0
LINE
5
776
100
AcDbEntity
8
0
100
AcDbLine
10
113.65407729223136
20
-13.060617568473305
30
0
11
112.79994988516214
21
-9.8729706891538989
31
0
0
LINE
5
777
100
AcDbEntity
8
0
100
AcDbLine
10
111.89205652496186
20
-15.045775302632684
30
0
11
111.52775402446819
21
-15.143389863440603
31
0
0
LINE
5
778
100
AcDbEntity
8
0
100
AcDbLine
10
-0.80483993764720374
20
-13.367904917452346
30
0
11
-0.407267859305529
21
-13.367904917452364
31
0
0
LINE
5
779
100
AcDbEntity
8
0
100
AcDbLine
10
113.14860925813393
20
-17.003025191518041
30
0
11
112.9594810465686
21
-16.297189096811604
31
0
0
LINE
5
780
100
AcDbEntity
8
0
100
AcDbLine
10
-0.79450874182481535
20
-17.604532377280819
30
0
11
-0.80901973443030961
21
-17.98968032817432
31
0
0
LINE
5
781
100
AcDbEntity
8
0
100
AcDbLine
10
0.36302804248147247
20
-19.530272131748323
30
0
11
0.73575186592679032
21
-19.530272131748323
31
0
0
LINE
5
782
100
AcDbEntity
8
0
100
AcDbLine
10
123.27275792793357
20
-15.077889856783468
30
0
11
123.55256195776036
21
-16.122132712259607
31
0
0
LINE
5
783
100
AcDbEntity
8
0
100
AcDbLine
10
0.73575186592679032
20
-21.070863935322308
30
0
11
0.3630280424814547
21
-21.070863935322308
31
0
0
LINE
5
784
100
AcDbEntity
8
0
100
AcDbLine
10
1.9036198460554488
20
-15.653944367916985
30
0
11
2.2763436695007666
21
-15.653944367916985
31
0
0
LINE
5
785
100
AcDbEntity
8
0
100
AcDbLine
10
1.5308960226101309
20
-15.281220544471676
30
0
11
1.5308960226101309
21
-15.653944367916985
31
0
0
LINE
5
786
100
AcDbEntity
8
0
100
AcDbLine
10
0.73575186592679032
20
-20.300568033535306
30
0
11
0.73575186592679032
21
-21.070863935322308
31
0
0
LINE
5
787
100
AcDbEntity
8
0
100
AcDbLine
10
-2.3454317412211889
20
-20.302654898692609
30
0
11
-2.3454317412211889
21
-19.530272131748305
31
0
0
LINE
5
788
100
AcDbEntity
8
0
100
AcDbLine
10
-4.6811677014785325
20
-19.530272131748305
30
0
11
-5.051800109915181
21
-19.530272131748323
31
0
0
LINE
5
789
100
AcDbEntity
8
0
100
AcDbLine
10
123.49083164863438
20
-17.257886439085627
30
0
11
123.14929805442159
21
-17.349400089843041
31
0
0
LINE
5
790
100
AcDbEntity
8
0
100
AcDbLine
10
114.06634247068654
20
-17.513632164608659
30
0
11
113.8772142591212
21
-16.807796069902221
31
0
0
LINE
5
791
100
AcDbEntity
8
0
100
AcDbLine
10
114.59018638985492
20
-18.12978145576886
30
0
11
114.25547068225187
21
-18.219468259315114
31
0
0
LINE
5
792
100
AcDbEntity
8
0
100
AcDbLine
10
2.2763436695007666
20
-15.653944367916985
30
0
11
2.2763436695007666
21
-16.424240269703986
31
0
0
LINE
5
793
100
AcDbEntity
8
0
100
AcDbLine
10
-5.4224355515860712
20
-19.530272131748323
30
0
11
-5.4369480608086729
21
-19.915420082641806
31
0
0
LINE
5
794
100
AcDbEntity
8
0
100
AcDbLine
10
-1.568382343398218
20
-12.342189459994312
30
0
11
-1.5367745259974086
21
-12.572760760769015
31
0
0
LINE
5
795
100
AcDbEntity
8
0
100
AcDbLine
10
-2.3454317412211889
20
-19.530272131748305
30
0
11
-2.7430038195628725
21
-19.530272131748323
31
0
0
LINE
5
796
100
AcDbEntity
8
0
100
AcDbLine
10
123.55256195776036
20
-16.122132712259607
30
0
11
123.83236524284717
21
-17.166372788328214
31
0
0
LINE
5
797
100
AcDbEntity
8
0
100
AcDbLine
10
-4.6811677014785236
20
-8.6964329969376948
30
0
11
-4.6811677014785325
21
-9.0940050752793695
31
0
0
LINE
5
798
100
AcDbEntity
8
0
100
AcDbLine
10
-6.2093353776043392
20
-20.31428431876985
30
0
11
-6.9672071519431578
21
-20.32800667047286
31
0
0
LINE
5
799
100
AcDbEntity
8
0
100
AcDbLine
10
-0.80483993764720374
20
-12.572760760769015
30
0
11
-0.80483993764720374
21
-12.945484584214324
31
0
0
LINE
5
800
100
AcDbEntity
8
0
100
AcDbLine
10
-0.0096957809638542614
20
-21.468436013663982
30
0
11
-0.0096957809638542614
21
-21.866008092005636
31
0
0
LWPOLYLINE
5
801
100
AcDbEntity
8
0
100
AcDbPolyline
90
4
70
1
43
0.0
10
117.30579531671768
20
-12.04448075155539
10
118.33846383744196
20
-11.767778055378272
10
119.90644578244563
20
-17.619566339482564
10
118.87377726172134
20
-17.896269035659682
0
LINE
5
802
100
AcDbEntity
8
0
100
AcDbLine
10
0.73575186592679032
20
-19.530272131748323
30
0
11
0.73575186592679032
21
-20.300568033535306
31
0
0
LINE
5
803
100
AcDbEntity
8
0
100
AcDbLine
10
123.43604082679484
20
-18.419538685043133
30
0
11
123.72278359916807
21
-19.489677280243225
31
0
0
LINE
5
804
100
AcDbEntity
8
0
100
AcDbLine
10
-0.0096957809638542614
20
-18.759976229961321
30
0
11
-0.0096957809638542614
21
-19.530272131748323
31
0
0
LINE
5
805
100
AcDbEntity
8
0
100
AcDbLine
10
0.3630280424814547
20
-21.070863935322308
30
0
11
-0.0096957809638542614
21
-21.070863935322308
31
0
0
LINE
5
806
100
AcDbEntity
8
0
100
AcDbLine
10
-6.9672071519431578
20
-13.741920898684043
30
0
11
-6.9672071519431578
21
-7.1558411933637096
31
0
0
LINE
5
807
100
AcDbEntity
8
0
100
AcDbLine
10
-3.1405758979045473
20
-17.98968032817432
30
0
11
-3.5132997213498651
21
-17.98968032817432
31
0
0
LINE
5
808
100
AcDbEntity
8
0
100
AcDbLine
10
-5.4266153483691681
20
-8.6964329969376948
30
0
11
-5.0538915249238503
21
-8.6964329969376948
31
0
0
LINE
5
809
100
AcDbEntity
8
0
100
AcDbLine
10
122.66866113172614
20
-9.9089499166985746
30
0
11
123.32649741794468
21
-12.3640283599286
31
0
0
LINE
5
810
100
AcDbEntity
8
0
100
AcDbLine
10
-0.0096957809638542614
20
-21.070863935322308
30
0
11
-0.0096957809638542614
21
-21.468436013663982
31
0
0
LINE
5
811
100
AcDbEntity
8
0
100
AcDbLine
10
114.92489931805051
20
-18.040095396962592
30
0
11
114.59018638985492
21
-18.12978145576886
31
0
0
LINE
5
812
100
AcDbEntity
8
0
100
AcDbLine
10
-0.0096957809638542614
20
-19.530272131748323
30
0
11
0.36302804248147247
21
-19.530272131748323
31
0
0
LINE
5
813
100
AcDbEntity
8
0
100
AcDbLine
10
-1.1708102650565433
20
-12.572760760769015
30
0
11
-0.80483993764720374
21
-12.572760760769015
31
0
0
LINE
5
814
100
AcDbEntity
8
0
100
AcDbLine
10
-0.40936079093132349
20
-17.98968032817432
30
0
11
-0.0096957809638542614
21
-17.98968032817432
31
0
0
SPLINE
5
815
100
AcDbEntity
8
0
100
AcDbSpline
70
4
71
3
72
8
73
4
74
0
42
0.000000001
43
0.0000000001
44
0.0000000001
40
0
40
0
40
0
40
0
40
1
40
1
40
1
40
1
41
1
41
1
41
1
41
1
10
115.28489478628433
20
-19.14691131415114
30
0
10
115.2423045953703
20
-18.987962557755946
30
0
10
115.14388031196552
20
-18.673902696816278
30
0
10
115.06617978182842
20
-18.44900297670635
30
0
0
LINE
5
816
100
AcDbEntity
8
0
100
AcDbLine
10
1.5308960226101309
20
-15.653944367916985
30
0
11
1.9036198460554488
21
-15.653944367916985
31
0
0
LINE
5
817
100
AcDbEntity
8
0
100
AcDbLine
10
-2.3454317412211889
20
-11.777616604085665
30
0
11
-1.9727079177758799
21
-11.777616604085665
31
0
0
LINE
5
818
100
AcDbEntity
8
0
100
AcDbLine
10
-5.451463603265525
20
-20.300568033535306
30
0
11
-6.2093353776043392
21
-20.31428431876985
31
0
0
LINE
5
819
100
AcDbEntity
8
0
100
AcDbLine
10
-3.1405758979045473
20
-18.759976229961321
30
0
11
-3.1405758979045473
21
-17.98968032817432
31
0
0
LINE
5
820
100
AcDbEntity
8
0
100
AcDbLine
10
-0.0096957809638542614
20
-21.866008092005636
30
0
11
-0.77999168275085573
21
-21.866008092005636
31
0
0
LINE
5
821
100
AcDbEntity
8
0
100
AcDbLine
10
116.04539929479543
20
-19.252884025597325
30
0
11
115.70386570058261
21
-19.344397676354756
31
0
0
LINE
5
822
100
AcDbEntity
8
0
100
AcDbLine
10
-1.5999840943305532
20
-11.777616604085665
30
0
11
-1.5999840943305532
21
-11.94461738165262
31
0
0
LINE
5
823
100
AcDbEntity
8
0
100
AcDbLine
10
-2.7142290429424687
20
-11.032168957195029
30
0
11
-2.3454317412211889
21
-11.032168957195029
31
0
0
LINE
5
824
100
AcDbEntity
8
0
100
AcDbLine
10
-6.2093353776043392
20
-20.31428431876985
30
0
11
-6.594483328497831
21
-20.31428431876985
31
0
0
LINE
5
825
100
AcDbEntity
8
0
100
AcDbLine
10
121.83736765633547
20
-9.7209404344892754
30
0
11
121.92888130709289
21
-10.062474028702059
31
0
0
LINE
5
826
100
AcDbEntity
8
0
100
AcDbLine
10
-1.9602837903276971
20
-21.060526673031433
30
0
11
-2.3454317412211889
21
-21.075043732105392
31
0
0
LINE
5
827
100
AcDbEntity
8
0
100
AcDbLine
10
123.32649741794468
20
-12.3640283599286
30
0
11
123.98433295942323
21
-14.819104023751112
31
0
0
LINE
5
828
100
AcDbEntity
8
0
100
AcDbLine
10
1.5308960226101309
20
-14.908496721026349
30
0
11
1.5308960226101309
21
-15.281220544471676
31
0
0
LINE
5
829
100
AcDbEntity
8
0
100
AcDbLine
10
-3.0830278612808737
20
-11.032168957195029
30
0
11
-2.7142290429424687
21
-11.032168957195029
31
0
0
LINE
5
830
100
AcDbEntity
8
0
100
AcDbLine
10
-0.0096957809638542614
20
-13.740628740897673
30
0
11
-0.0096957809638542614
21
-14.113352564343
31
0
0
LINE
5
831
100
AcDbEntity
8
0
100
AcDbLine
10
-1.5818893354701746
20
-21.301432202862756
30
0
11
-1.6134910864025098
21
-21.070863935322308
31
0
0
LINE
5
832
100
AcDbEntity
8
0
100
AcDbLine
10
-0.80483993764720374
20
-12.945484584214324
30
0
11
-0.80483993764720374
21
-13.31820840765965
31
0
0
LINE
5
833
100
AcDbEntity
8
0
100
AcDbLine
10
-6.2217595050525221
20
-7.1558411933637096
30
0
11
-6.2217595050525221
21
-7.5534132717053843
31
0
0
LINE
5
834
100
AcDbEntity
8
0
100
AcDbLine
10
121.40432041136526
20
-9.4709204910338869
30
0
11
121.74585400557804
21
-9.3794068402764559
31
0
0
LINE
5
835
100
AcDbEntity
8
0
100
AcDbLine
10
112.28735607230568
20
-6.5938101590770444
30
0
11
112.6288896665185
21
-6.5022965083196311
31
0
0
LINE
5
836
100
AcDbEntity
8
0
100
AcDbLine
10
-3.5132997213498651
20
-17.98968032817432
30
0
11
-3.8860235447951919
21
-17.98968032817432
31
0
0
LINE
5
837
100
AcDbEntity
8
0
100
AcDbLine
10
-5.4369480608086729
20
-19.915420082641806
30
0
11
-5.451463603265525
21
-20.300568033535306
31
0
0
LINE
5
838
100
AcDbEntity
8
0
100
AcDbLine
10
-6.2217595050525221
20
-7.5534132717053843
30
0
11
-6.2217595050525221
21
-7.9509853500470591
31
0
0
LINE
5
839
100
AcDbEntity
8
0
100
AcDbLine
10
-2.3454317412211889
20
-11.032168957195029
30
0
11
-2.3454317412211889
21
-11.404892780640356
31
0
0
LINE
5
840
100
AcDbEntity
8
0
100
AcDbLine
10
120.17083421935499
20
-20.441419248120354
30
0
11
116.61888483954192
21
-21.393161215997509
31
0
0
LINE
5
841
100
AcDbEntity
8
0
100
AcDbLine
10
-1.5751358394341963
20
-21.046015680425938
30
0
11
-1.9602837903276971
21
-21.060526673031433
31
0
0
LINE
5
842
100
AcDbEntity
8
0
100
AcDbLine
10
123.83236524284717
20
-17.166372788328214
30
0
11
123.49083164863438
21
-17.257886439085627
31
0
0
LINE
5
843
100
AcDbEntity
8
0
100
AcDbLine
10
2.2763436695007666
20
-16.424240269703986
30
0
11
2.2763436695007666
21
-17.19453617149097
31
0
0
LINE
5
844
100
AcDbEntity
8
0
100
AcDbLine
10
113.94904820517398
20
-5.7825064909761643
30
0
11
114.0405618559314
21
-6.124040085188966
31
0
0
LINE
5
845
100
AcDbEntity
8
0
100
AcDbLine
10
-4.2835956231368577
20
-9.4915771536210443
30
0
11
-3.8860235447951919
21
-9.4915771536210443
31
0
0
LINE
5
846
100
AcDbEntity
8
0
100
AcDbLine
10
115.09376156533892
20
-10.054634911214652
30
0
11
119.38085970598257
21
-9.0008813604926736
31
0
0
LINE
5
847
100
AcDbEntity
8
0
100
AcDbLine
10
115.06617978182842
20
-18.44900297670635
30
0
11
114.92489931805051
21
-18.040095396962592
31
0
0
LINE
5
848
100
AcDbEntity
8
0
100
AcDbLine
10
-3.8860235447951919
20
-18.387252406515994
30
0
11
-3.8860235447951919
21
-18.784824484857669
31
0
0
LINE
5
849
100
AcDbEntity
8
0
100
AcDbLine
10
116.33214206716869
20
-20.323022620797417
30
0
11
116.04539929479543
21
-19.252884025597325
31
0
0
LINE
5
850
100
AcDbEntity
8
0
100
AcDbLine
10
111.94582247809291
20
-6.6853238098344754
30
0
11
112.28735607230568
21
-6.5938101590770444
31
0
0
LINE
5
851
100
AcDbEntity
8
0
100
AcDbLine
10
115.36233210636982
20
-19.435911327112169
30
0
11
115.28489478628433
21
-19.14691131415114
31
0
0
LWPOLYLINE
5
852
100
AcDbEntity
8
0
100
AcDbPolyline
90
4
70
1
43
0.0
10
117.84110874099707
20
-18.1729717318368
10
116.80844022027276
20
-18.449674428013918
10
115.24045827526911
20
-12.597886143909626
10
116.27312679599341
20
-12.321183447732508
0
LINE
5
853
100
AcDbEntity
8
0
100
AcDbLine
10
115.70386570058261
20
-19.344397676354756
30
0
11
115.36233210636982
21
-19.435911327112169
31
0
0
LINE
5
854
100
AcDbEntity
8
0
100
AcDbLine
10
-3.8860235447951919
20
-18.784824484857669
30
0
11
-4.2529523742244546
21
-18.784824484857669
31
0
0
LINE
5
855
100
AcDbEntity
8
0
100
AcDbLine
10
0.36302804248147247
20
-14.113352564343
30
0
11
0.73575186592679032
21
-14.113352564343
31
0
0
LINE
5
856
100
AcDbEntity
8
0
100
AcDbLine
10
-4.6804912902429496
20
-19.26936545533658
30
0
11
-4.6811677014785325
21
-19.530272131748305
31
0
0
SPLINE
5
857
100
AcDbEntity
8
0
100
AcDbSpline
70
4
71
3
72
8
73
4
74
0
42
0.000000001
43
0.0000000001
44
0.0000000001
40
0
40
0
40
0
40
0
40
1
40
1
40
1
40
1
41
1
41
1
41
1
41
1
10
-4.2529523742244546
20
-18.784824484857669
30
0
10
-4.6722818417716372
20
-18.784824484857669
30
0
10
-4.6792491808215608
20
-18.79272302681936
30
0
10
-4.6804912902429496
20
-19.26936545533658
30
0
0
LINE
5
858
100
AcDbEntity
8
0
100
AcDbLine
10
123.62854656078839
20
-14.948501109378551
30
0
11
123.27275792793357
21
-15.077889856783468
31
0
0
LINE
5
859
100
AcDbEntity
8
0
100
AcDbLine
10
-1.9727079177758799
20
-11.777616604085665
30
0
11
-1.5999840943305532
21
-11.777616604085665
31
0
0
LINE
5
860
100
AcDbEntity
8
0
100
AcDbLine
10
-0.0096957809638542614
20
-13.367904917452364
30
0
11
-0.0096957809638542614
21
-13.740628740897673
31
0
0
LINE
5
861
100
AcDbEntity
8
0
100
AcDbLine
10
-0.407267859305529
20
-13.367904917452364
30
0
11
-0.0096957809638542614
21
-13.367904917452364
31
0
0
LINE
5
862
100
AcDbEntity
8
0
100
AcDbLine
10
-3.5132997213498651
20
-10.23702480051168
30
0
11
-3.1405758979045384
21
-10.23702480051168
31
0
0
LINE
5
863
100
AcDbEntity
8
0
100
AcDbLine
10
116.61888483954192
20
-21.393161215997509
30
0
11
116.33214206716869
21
-20.323022620797417
31
0
0
LINE
5
864
100
AcDbEntity
8
0
100
AcDbLine
10
-3.8860235447951919
20
-9.864300977066371
30
0
11
-3.8860235447951919
21
-10.23702480051168
31
0
0
LINE
5
865
100
AcDbEntity
8
0
100
AcDbLine
10
1.1333239442684562
20
-14.908496721026349
30
0
11
1.5308960226101309
21
-14.908496721026349
31
0
0
LINE
5
866
100
AcDbEntity
8
0
100
AcDbLine
10
2.2763436695007666
20
-17.19453617149097
30
0
11
0.82272075806402611
21
-17.202107124154715
31
0
0
LINE
5
867
100
AcDbEntity
8
0
100
AcDbLine
10
-6.594483328497831
20
-7.1558411933637096
30
0
11
-6.2217595050525221
21
-7.1558411933637096
31
0
0
LINE
5
868
100
AcDbEntity
8
0
100
AcDbLine
10
-6.9672071519431578
20
-20.32800667047286
30
0
11
-6.9672071519431578
21
-13.741920898684043
31
0
0
SPLINE
5
869
100
AcDbEntity
8
0
100
AcDbSpline
70
4
71
3
72
8
73
4
74
0
42
0.000000001
43
0.0000000001
44
0.0000000001
40
0
40
0
40
0
40
0
40
1
40
1
40
1
40
1
41
1
41
1
41
1
41
1
10
0.82272075806402611
20
-17.202107124154715
30
0
10
0.023228460097231007
20
-17.206271754766604
30
0
10
-0.66444669083595365
20
-17.211862005471438
30
0
10
-0.70544691806179394
20
-17.214531251602889
30
0
0
LINE
5
870
100
AcDbEntity
8
0
100
AcDbLine
10
-4.6811677014785325
20
-9.4915771536210443
30
0
11
-4.2835956231368577
21
-9.4915771536210443
31
0
0
LINE
5
871
100
AcDbEntity
8
0
100
AcDbLine
10
-5.051800109915181
20
-19.530272131748323
30
0
11
-5.4224355515860712
21
-19.530272131748323
31
0
0
LINE
5
872
100
AcDbEntity
8
0
100
AcDbLine
10
-3.1405758979045384
20
-10.23702480051168
30
0
11
-3.1405758979045473
21
-10.634596878853355
31
0
0
LINE
5
873
100
AcDbEntity
8
0
100
AcDbLine
10
-0.0096957809638542614
20
-17.98968032817432
30
0
11
-0.0096957809638542614
21
-18.759976229961321
31
0
0
LINE
5
874
100
AcDbEntity
8
0
100
AcDbLine
10
113.15169845971012
20
-5.6301011083287129
30
0
11
113.85753455441657
21
-5.4409728967633804
31
0
0
LINE
5
875
100
AcDbEntity
8
0
100
AcDbLine
10
-3.8860235447951919
20
-17.98968032817432
30
0
11
-3.8860235447951919
21
-18.387252406515994
31
0
0
LINE
5
876
100
AcDbEntity
8
0
100
AcDbLine
10
119.38085970598257
20
-9.0008813604926736
30
0
11
119.46459602953547
21
-9.2000342187478452
31
0
0
LINE
5
877
100
AcDbEntity
8
0
100
AcDbLine
10
-6.2217595050525221
20
-7.9509853500470591
30
0
11
-5.8241874267108473
21
-7.9509853500470591
31
0
0
LINE
5
878
100
AcDbEntity
8
0
100
AcDbLine
10
119.46459602953547
20
-9.2000342187478452
30
0
11
120.17365608147941
21
-9.0452177099541693
31
0
0
LINE
5
879
100
AcDbEntity
8
0
100
AcDbLine
10
114.0405618559314
20
-6.124040085188966
30
0
11
115.09376156533892
21
-10.054634911214652
31
0
0
LINE
5
880
100
AcDbEntity
8
0
100
AcDbLine
10
-2.3454317412211889
20
-21.075043732105392
30
0
11
-2.3454317412211889
21
-20.302654898692609
31
0
0
LINE
5
881
100
AcDbEntity
8
0
100
AcDbLine
10
120.88271613342332
20
-8.8904012011605111
30
0
11
120.9727507305479
21
-9.2264148920684015
31
0
0
SPLINE
5
882
100
AcDbEntity
8
0
100
AcDbSpline
70
4
71
3
72
8
73
4
74
0
42
0.000000001
43
0.0000000001
44
0.0000000001
40
0
40
0
40
0
40
0
40
1
40
1
40
1
40
1
41
1
41
1
41
1
41
1
10
0.73575186592679032
20
-14.480759128165108
30
0
10
0.73575186592679032
20
-14.729645097282617
30
0
10
0.71571432053550765
20
-14.85536659007365
30
0
10
0.67363122868589365
20
-14.870490295995673
30
0
0
SPLINE
5
883
100
AcDbEntity
8
0
100
AcDbSpline
70
4
71
3
72
8
73
4
74
0
42
0.000000001
43
0.0000000001
44
0.0000000001
40
0
40
0
40
0
40
0
40
1
40
1
40
1
40
1
41
1
41
1
41
1
41
1
10
-1.5502875845378394
20
-21.699004281204431
30
0
10
-1.5502875845378394
20
-21.607154915174604
30
0
10
-1.5645104198905102
20
-21.428248693214542
30
0
10
-1.5818893354701746
20
-21.301432202862756
30
0
0
LINE
5
884
100
AcDbEntity
8
0
100
AcDbLine
10
-1.5502875845378394
20
-21.866008092005636
30
0
11
-1.5502875845378394
21
-21.699004281204431
31
0
0
LINE
5
885
100
AcDbEntity
8
0
100
AcDbLine
10
112.79994988516214
20
-9.8729706891538989
30
0
11
111.94582247809291
21
-6.6853238098344754
31
0
0
LINE
5
886
100
AcDbEntity
8
0
100
AcDbLine
10
-3.1405758979045384
20
-19.530272131748323
30
0
11
-3.1405758979045473
21
-18.759976229961321
31
0
0
LINE
5
887
100
AcDbEntity
8
0
100
AcDbLine
10
-5.4266153483691681
20
-7.9509853500470591
30
0
11
-5.4266153483691681
21
-8.3237091734923681
31
0
0
LINE
5
888
100
AcDbEntity
8
0
100
AcDbLine
10
-3.8860235447951919
20
-10.23702480051168
30
0
11
-3.5132997213498651
21
-10.23702480051168
31
0
0
LINE
5
889
100
AcDbEntity
8
0
100
AcDbLine
10
112.6288896665185
20
-6.5022965083196311
30
0
11
112.53737601576108
21
-6.1607629141068294
31
0
0
LINE
5
890
100
AcDbEntity
8
0
100
AcDbLine
10
-3.1405758979045473
20
-10.634596878853355
30
0
11
-3.1405758979045473
21
-11.032168957195029
31
0
0
LINE
5
891
100
AcDbEntity
8
0
100
AcDbLine
10
-4.6811677014785325
20
-9.0940050752793695
30
0
11
-4.6811677014785325
21
-9.4915771536210443
31
0
0
LINE
5
892
100
AcDbEntity
8
0
100
AcDbLine
10
123.98433295942323
20
-14.819104023751112
30
0
11
123.62854656078839
21
-14.948501109378551
31
0
0
LINE
5
893
100
AcDbEntity
8
0
100
AcDbLine
10
-6.594483328497831
20
-7.1558411933637096
30
0
11
-6.2093353776043392
21
-7.1558411933637096
31
0
0
LINE
5
894
100
AcDbEntity
8
0
100
AcDbLine
10
113.85753455441657
20
-5.4409728967633804
30
0
11
113.94904820517398
21
-5.7825064909761643
31
0
0
LINE
5
895
100
AcDbEntity
8
0
100
AcDbLine
10
120.9727507305479
20
-9.2264148920684015
30
0
11
121.06278681715246
21
-9.5624341417913001
31
0
0
LINE
5
896
100
AcDbEntity
8
0
100
AcDbLine
10
-2.3454317412211889
20
-11.404892780640356
30
0
11
-2.3454317412211889
21
-11.777616604085665
31
0
0
LINE
5
897
100
AcDbEntity
8
0
100
AcDbLine
10
0.73575186592679032
20
-14.113352564343
30
0
11
0.73575186592679032
21
-14.480759128165108
31
0
0
LINE
5
898
100
AcDbEntity
8
0
100
AcDbLine
10
-5.0538915249238503
20
-8.6964329969376948
30
0
11
-4.6811677014785236
21
-8.6964329969376948
31
0
0
LINE
5
899
100
AcDbEntity
8
0
100
AcDbLine
10
-2.7430038195628725
20
-19.530272131748323
30
0
11
-3.1405758979045384
21
-19.530272131748323
31
0
0
LINE
5
900
100
AcDbEntity
8
0
100
AcDbLine
10
121.74585400557804
20
-9.3794068402764559
30
0
11
121.83736765633547
21
-9.7209404344892754
31
0
0
LINE
5
901
100
AcDbEntity
8
0
100
AcDbLine
10
123.72278359916807
20
-19.489677280243225
30
0
11
120.17083421935499
21
-20.441419248120354
31
0
0
SPLINE
5
902
100
AcDbEntity
8
0
100
AcDbSpline
70
4
71
3
72
8
73
4
74
0
42
0.000000001
43
0.0000000001
44
0.0000000001
40
0
40
0
40
0
40
0
40
1
40
1
40
1
40
1
41
1
41
1
41
1
41
1
10
-1.5999840943305532
20
-11.94461738165262
30
0
10
-1.5999840943305532
20
-12.036466747682468
30
0
10
-1.5857612589778913
20
-12.21537296964253
30
0
10
-1.568382343398218
20
-12.342189459994312
30
0
0
LINE
5
903
100
AcDbEntity
8
0
100
AcDbLine
10
114.25547068225187
20
-18.219468259315114
30
0
11
114.06634247068654
21
-17.513632164608659
31
0
0
LINE
5
904
100
AcDbEntity
8
0
100
AcDbLine
10
121.96995294352521
20
-10.124679837494146
30
0
11
122.31930740999567
21
-10.016816266800099
31
0
0
LINE
5
905
100
AcDbEntity
8
0
100
AcDbLine
10
112.53737601576108
20
-6.1607629141068294
30
0
11
112.44586236500368
21
-5.8192293198940277
31
0
0
SPLINE
5
906
100
AcDbEntity
8
0
100
AcDbSpline
70
4
71
3
72
8
73
4
74
0
42
0.000000001
43
0.0000000001
44
0.0000000001
40
0
40
0
40
0
40
0
40
1
40
1
40
1
40
1
41
1
41
1
41
1
41
1
10
-0.70544691806179394
20
-17.214531251602889
30
0
10
-0.76352728729461639
20
-17.218310661466269
30
0
10
-0.78319781134282174
20
-17.304442380953191
30
0
10
-0.79450874182481535
20
-17.604532377280819
30
0
0
LINE
5
907
100
AcDbEntity
8
0
100
AcDbLine
10
-3.8860235447951919
20
-9.4915771536210443
30
0
11
-3.8860235447951919
21
-9.864300977066371
31
0
0
LINE
5
908
100
AcDbEntity
8
0
100
AcDbLine
10
-5.8241874267108473
20
-7.9509853500470591
30
0
11
-5.4266153483691681
21
-7.9509853500470591
31
0
0
LINE
5
909
100
AcDbEntity
8
0
100
AcDbLine
10
123.14929805442159
20
-17.349400089843041
30
0
11
123.43604082679484
21
-18.419538685043133
31
0
0
LINE
5
910
100
AcDbEntity
8
0
100
AcDbLine
10
121.06278681715246
20
-9.5624341417913001
30
0
11
121.40432041136526
21
-9.4709204910338869
31
0
0
LINE
5
911
100
AcDbEntity
8
0
100
AcDbLine
10
-6.9672071519431578
20
-7.1558411933637096
30
0
11
-6.594483328497831
21
-7.1558411933637096
31
0
0
LINE
5
912
100
AcDbEntity
8
0
100
AcDbLine
10
122.31930740999567
20
-10.016816266800099
30
0
11
122.66866113172614
21
-9.9089499166985746
31
0
0
LINE
5
913
100
AcDbEntity
8
0
100
AcDbLine
10
-5.4266153483691681
20
-8.3237091734923681
30
0
11
-5.4266153483691681
21
-8.6964329969376948
31
0
0
LINE
5
914
100
AcDbEntity
8
0
100
AcDbLine
10
-0.0096957809638542614
20
-14.113352564343
30
0
11
0.36302804248147247
21
-14.113352564343
31
0
0
LINE
5
915
100
AcDbEntity
8
0
100
AcDbLine
10
120.17365608147941
20
-9.0452177099541693
30
0
11
120.88271613342332
21
-8.8904012011605111
31
0
0
LINE
5
916
100
AcDbEntity
8
0
100
AcDbLine
10
-1.5367745259974086
20
-12.572760760769015
30
0
11
-1.1708102650565433
21
-12.572760760769015
31
0
0
LINE
5
917
100
AcDbEntity
8
0
100
AcDbLine
10
0.73575186592679032
20
-14.908496721026349
30
0
11
1.1333239442684562
21
-14.908496721026349
31
0
0
LINE
5
918
100
AcDbEntity
8
0
100
AcDbLine
10
112.44586236500368
20
-5.8192293198940277
30
0
11
113.15169845971012
21
-5.6301011083287129
31
0
0
LINE
5
919
100
AcDbEntity
8
0
100
AcDbLine
10
111.52775402446819
20
-15.143389863440603
30
0
11
111.16345152397456
21
-15.241004424248505
31
0
0
LINE
5
920
100
AcDbEntity
8
0
100
AcDbLine
10
112.92547229124408
20
-13.255846690089125
30
0
11
113.28977479173773
21
-13.158232129281224
31
0
0
LINE
5
921
100
AcDbEntity
8
0
100
AcDbLine
10
113.28977479173773
20
-13.158232129281224
30
0
11
113.65407729223136
21
-13.060617568473305
31
0
0
LINE
5
922
100
AcDbEntity
8
0
100
AcDbLine
10
113.8772142591212
20
-16.807796069902221
30
0
11
113.51291175862757
21
-16.90541063071014
31
0
0
LINE
5
923
100
AcDbEntity
8
0
100
AcDbLine
10
112.83395864048666
20
-12.914313095876359
30
0
11
112.92547229124408
21
-13.255846690089125
31
0
0
LINE
5
924
100
AcDbEntity
8
0
100
AcDbLine
10
-0.77999168275085573
20
-21.866008092005636
30
0
11
-1.5502875845378394
21
-21.866008092005636
31
0
0
LINE
5
925
100
AcDbEntity
8
0
100
AcDbLine
10
110.88280966165181
20
-14.193634735329283
30
0
11
110.60216779932907
21
-13.146265046410026
31
0
0
LINE
5
926
100
AcDbEntity
8
0
100
AcDbLine
10
111.98967108576977
20
-15.410077803126338
30
0
11
111.89205652496186
21
-15.045775302632684
31
0
0
LINE
5
927
100
AcDbEntity
8
0
100
AcDbLine
10
112.74244498972925
20
-12.572779501663558
30
0
11
112.83395864048666
21
-12.914313095876359
31
0
0
LINE
5
928
100
AcDbEntity
8
0
100
AcDbLine
10
113.51291175862757
20
-16.90541063071014
30
0
11
113.14860925813393
21
-17.003025191518041
31
0
0
LINE
5
929
100
AcDbEntity
8
0
100
AcDbLine
10
111.67230639452916
20
-12.859522274036792
30
0
11
112.74244498972925
21
-12.572779501663558
31
0
0
LINE
5
930
100
AcDbEntity
8
0
100
AcDbLine
10
111.16345152397456
20
-15.241004424248505
30
0
11
110.88280966165181
21
-14.193634735329283
31
0
0
LINE
5
931
100
AcDbEntity
8
0
100
AcDbLine
10
112.77035283500327
20
-15.591353002105166
30
0
11
112.42881924079046
21
-15.682866652862579
31
0
0
LINE
5
932
100
AcDbEntity
8
0
100
AcDbLine
10
112.42881924079046
20
-15.682866652862579
30
0
11
112.08728564657767
21
-15.774380303619992
31
0
0
LINE
5
933
100
AcDbEntity
8
0
100
AcDbLine
10
110.60216779932907
20
-13.146265046410026
30
0
11
111.67230639452916
21
-12.859522274036792
31
0
0
LINE
5
934
100
AcDbEntity
8
0
100
AcDbLine
10
112.08728564657767
20
-15.774380303619992
30
0
11
111.98967108576977
21
-15.410077803126338
31
0
0
ENDSEC
0
SECTION
2
OBJECTS
0
DICTIONARY
5
C
100
AcDbDictionary
3
ACAD_GROUP
350
D
3
ACAD_MLINESTYLE
350
17
0
DICTIONARY
5
D
100
AcDbDictionary
0
DICTIONARY
5
1A
330
C
100
AcDbDictionary
0
DICTIONARY
5
17
100
AcDbDictionary
0
ENDSEC
0
EOF
