0
SECTION
2
HEADER
9
$INSUNITS
70
4
9
$ACADVER
1
AC1014
9
$HANDSEED
5
FFFF
0
ENDSEC
0
SECTION
2
TABLES
0
TABLE
2
VPORT
5
8
100
AcDbSymbolTable
0
ENDTAB
0
TABLE
2
LTYPE
5
5
100
AcDbSymbolTable
0
LTYPE
5
14
100
AcDbSymbolTableRecord
100
AcDbLinetypeTableRecord
2
BYBLOCK
70
0
0
LTYPE
5
15
100
AcDbSymbolTableRecord
100
AcDbLinetypeTableRecord
2
BYLAYER
70
0
0
ENDTAB
0
TABLE
2
LAYER
5
2
100
AcDbSymbolTable
70
2
0
LAYER
5
50
100
AcDbSymbolTableRecord
100
AcDbLayerTableRecord
2
0
70
0
6
CONTINUOUS
0
ENDTAB
0
TABLE
2
STYLE
5
3
100
AcDbSymbolTable
70
1
0
STYLE
5
11
100
AcDbSymbolTableRecord
100
AcDbTextStyleTableRecord
2
STANDARD
70
0
0
ENDTAB
0
TABLE
2
VIEW
5
6
100
AcDbSymbolTable
70
0
0
ENDTAB
0
TABLE
2
UCS
5
7
100
AcDbSymbolTable
70
0
0
ENDTAB
0
TABLE
2
APPID
5
9
100
AcDbSymbolTable
70
2
0
APPID
5
12
100
AcDbSymbolTableRecord
100
AcDbRegAppTableRecord
2
ACAD
70
0
0
ENDTAB
0
TABLE
2
DIMSTYLE
5
A
100
AcDbSymbolTable
70
1
0
ENDTAB
0
TABLE
2
BLOCK_RECORD
5
1
100
AcDbSymbolTable
70
1
0
BLOCK_RECORD
5
1F
100
AcDbSymbolTableRecord
100
AcDbBlockTableRecord
2
*MODEL_SPACE
0
BLOCK_RECORD
5
1B
100
AcDbSymbolTableRecord
100
AcDbBlockTableRecord
2
*PAPER_SPACE
0
ENDTAB
0
ENDSEC
0
SECTION
2
BLOCKS
0
BLOCK
5
20
100
AcDbEntity
100
AcDbBlockBegin
2
*MODEL_SPACE
0
ENDBLK
5
21
100
AcDbEntity
100
AcDbBlockEnd
0
BLOCK
5
1C
100
AcDbEntity
100
AcDbBlockBegin
2
*PAPER_SPACE
0
ENDBLK
5
1D
100
AcDbEntity
100
AcDbBlockEnd
0
ENDSEC
0
SECTION
2
ENTITIES
0
LINE
5
100
100
AcDbEntity
8
0
100
AcDbLine
10
91.590186389854921
20
-95.129781455768864
30
0
11
91.255470682251868
21
-95.219468259315107
31
0
0
LINE
5
101
100
AcDbEntity
8
0
100
AcDbLine
10
92.36233210636982
20
-96.435911327112166
30
0
11
92.284894786284326
21
-96.14691131415114
31
0
0
LINE
5
102
100
AcDbEntity
8
0
100
AcDbLine
10
90.877214259121203
20
-93.807796069902224
30
0
11
90.512911758627567
21
-93.905410630710136
31
0
0
LINE
5
103
100
AcDbEntity
8
0
100
AcDbLine
10
89.959481046568598
20
-93.297189096811607
30
0
11
89.770352835003266
21
-92.591353002105166
31
0
0
LINE
5
104
100
AcDbEntity
8
0
100
AcDbLine
10
92.06617978182841
20
-95.449002976706353
30
0
11
91.924899318050493
21
-95.040095396962585
31
0
0
LINE
5
105
100
AcDbEntity
8
0
100
AcDbLine
10
89.770352835003266
20
-92.591353002105166
30
0
11
89.42881924079046
21
-92.682866652862572
31
0
0
LINE
5
106
100
AcDbEntity
8
0
100
AcDbLine
10
89.42881924079046
20
-92.682866652862572
30
0
11
89.087285646577655
21
-92.774380303619992
31
0
0
LINE
5
107
100
AcDbEntity
8
0
100
AcDbLine
10
91.924899318050493
20
-95.040095396962585
30
0
11
91.590186389854921
21
-95.129781455768864
31
0
0
LINE
5
108
100
AcDbEntity
8
0
100
AcDbLine
10
90.148609258133931
20
-94.003025191518049
30
0
11
89.959481046568598
21
-93.297189096811607
31
0
0
LINE
5
109
100
AcDbEntity
8
0
100
AcDbLine
10
89.087285646577655
20
-92.774380303619992
30
0
11
88.989671085769757
21
-92.410077803126342
31
0
0
LINE
5
110
100
AcDbEntity
8
0
100
AcDbLine
10
88.989671085769757
20
-92.410077803126342
30
0
11
88.892056524961859
21
-92.045775302632677
31
0
0
LINE
5
111
100
AcDbEntity
8
0
100
AcDbLine
10
88.892056524961859
20
-92.045775302632677
30
0
11
88.52775402446818
21
-92.143389863440603
31
0
0
LINE
5
112
100
AcDbEntity
8
0
100
AcDbLine
10
91.066342470686536
20
-94.513632164608651
30
0
11
90.877214259121203
21
-93.807796069902224
31
0
0
LINE
5
113
100
AcDbEntity
8
0
100
AcDbLine
10
90.512911758627567
20
-93.905410630710136
30
0
11
90.148609258133931
21
-94.003025191518049
31
0
0
LINE
5
114
100
AcDbEntity
8
0
100
AcDbLine
10
93.04539929479543
20
-96.252884025597325
30
0
11
92.703865700582611
21
-96.34439767635476
31
0
0
LINE
5
115
100
AcDbEntity
8
0
100
AcDbLine
10
92.703865700582611
20
-96.34439767635476
30
0
11
92.36233210636982
21
-96.435911327112166
31
0
0
SPLINE
5
116
100
AcDbEntity
8
0
100
AcDbSpline
70
4
71
3
72
8
73
4
74
0
42
0.000000001
43
0.0000000001
44
0.0000000001
40
0
40
0
40
0
40
0
40
1
40
1
40
1
40
1
41
1
41
1
41
1
41
1
10
92.284894786284326
20
-96.14691131415114
30
0
10
92.242304595370285
20
-95.987962557755949
30
0
10
92.143880311965503
20
-95.67390269681627
30
0
10
92.06617978182841
20
-95.449002976706353
30
0
0
LINE
5
117
100
AcDbEntity
8
0
100
AcDbLine
10
91.255470682251868
20
-95.219468259315107
30
0
11
91.066342470686536
21
-94.513632164608651
31
0
0
LINE
5
118
100
AcDbEntity
8
0
100
AcDbLine
10
100.43604082679482
20
-95.419538685043136
30
0
11
100.72278359916807
21
-96.489677280243228
31
0
0
LINE
5
119
100
AcDbEntity
8
0
100
AcDbLine
10
100.83236524284716
20
-94.166372788328218
30
0
11
100.49083164863438
21
-94.257886439085624
31
0
0
SPLINE
5
120
100
AcDbEntity
8
0
100
AcDbSpline
70
4
71
3
72
8
73
4
74
0
42
0.000000001
43
0.0000000001
44
0.0000000001
40
0
40
0
40
0
40
0
40
1
40
1
40
1
40
1
41
1
41
1
41
1
41
1
10
-24.550287584537848
20
-98.699004281204438
30
0
10
-24.550287584537848
20
-98.607154915174604
30
0
10
-24.564510419890517
20
-98.428248693214542
30
0
10
-24.58188933547018
20
-98.301432202862756
30
0
0
LINE
5
121
100
AcDbEntity
8
0
100
AcDbLine
10
93.332142067168675
20
-97.323022620797417
30
0
11
93.04539929479543
21
-96.252884025597325
31
0
0
LINE
5
122
100
AcDbEntity
8
0
100
AcDbLine
10
98.062786817152443
20
-86.5624341417913
30
0
11
98.404320411365248
21
-86.470920491033894
31
0
0
LINE
5
123
100
AcDbEntity
8
0
100
AcDbLine
10
-21.469103977389878
20
-92.653944367916978
30
0
11
-21.096380153944558
21
-92.653944367916978
31
0
0
LINE
5
124
100
AcDbEntity
8
0
100
AcDbLine
10
89.445862365003677
20
-82.819229319894021
30
0
11
90.151698459710104
21
-82.630101108328716
31
0
0
LINE
5
125
100
AcDbEntity
8
0
100
AcDbLine
10
87.602167799329052
20
-90.146265046410022
30
0
11
88.672306394529144
21
-89.859522274036792
31
0
0
LINE
5
126
100
AcDbEntity
8
0
100
AcDbLine
10
100.98433295942321
20
-91.819104023751109
30
0
11
100.62854656078839
21
-91.948501109378554
31
0
0
LINE
5
127
100
AcDbEntity
8
0
100
AcDbLine
10
-21.096380153944558
20
-92.653944367916978
30
0
11
-20.723656330499239
21
-92.653944367916978
31
0
0
LINE
5
128
100
AcDbEntity
8
0
100
AcDbLine
10
-20.723656330499239
20
-93.424240269703986
30
0
11
-20.723656330499239
21
-94.194536171490967
31
0
0
LINE
5
129
100
AcDbEntity
8
0
100
AcDbLine
10
90.654077292231364
20
-90.060617568473305
30
0
11
89.799949885162121
21
-86.872970689153902
31
0
0
SPLINE
5
130
100
AcDbEntity
8
0
100
AcDbSpline
70
4
71
3
72
8
73
4
74
0
42
0.000000001
43
0.0000000001
44
0.0000000001
40
0
40
0
40
0
40
0
40
1
40
1
40
1
40
1
41
1
41
1
41
1
41
1
10
-23.705446918061803
20
-94.214531251602892
30
0
10
-23.763527287294622
20
-94.218310661466262
30
0
10
-23.783197811342831
20
-94.304442380953191
30
0
10
-23.794508741824821
20
-94.604532377280819
30
0
0
LINE
5
131
100
AcDbEntity
8
0
100
AcDbLine
10
90.85753455441656
20
-82.440972896763384
30
0
11
90.94904820517398
21
-82.782506490976161
31
0
0
LINE
5
132
100
AcDbEntity
8
0
100
AcDbLine
10
89.628889666518489
20
-83.502296508319631
30
0
11
89.537376015761083
21
-83.160762914106826
31
0
0
LINE
5
133
100
AcDbEntity
8
0
100
AcDbLine
10
-21.866676055731553
20
-91.908496721026353
30
0
11
-21.469103977389878
21
-91.908496721026353
31
0
0
LINE
5
134
100
AcDbEntity
8
0
100
AcDbLine
10
93.618884839541906
20
-98.393161215997509
30
0
11
93.332142067168675
21
-97.323022620797417
31
0
0
LINE
5
135
100
AcDbEntity
8
0
100
AcDbLine
10
89.28735607230567
20
-83.593810159077037
30
0
11
89.628889666518489
21
-83.502296508319631
31
0
0
LINE
5
136
100
AcDbEntity
8
0
100
AcDbLine
10
88.163451523974544
20
-92.241004424248501
30
0
11
87.882809661651805
21
-91.193634735329283
31
0
0
LINE
5
137
100
AcDbEntity
8
0
100
AcDbLine
10
100.62854656078839
20
-91.948501109378554
30
0
11
100.27275792793355
21
-92.077889856783472
31
0
0
LINE
5
138
100
AcDbEntity
8
0
100
AcDbLine
10
98.837367656335459
20
-86.720940434489279
30
0
11
98.92888130709288
21
-87.062474028702056
31
0
0
LINE
5
139
100
AcDbEntity
8
0
100
AcDbLine
10
90.289774791737727
20
-90.158232129281231
30
0
11
90.654077292231364
21
-90.060617568473305
31
0
0
LINE
5
140
100
AcDbEntity
8
0
100
AcDbLine
10
88.945822478092893
20
-83.685323809834472
30
0
11
89.28735607230567
21
-83.593810159077037
31
0
0
LINE
5
141
100
AcDbEntity
8
0
100
AcDbLine
10
87.882809661651805
20
-91.193634735329283
30
0
11
87.602167799329052
21
-90.146265046410022
31
0
0
LINE
5
142
100
AcDbEntity
8
0
100
AcDbLine
10
90.151698459710104
20
-82.630101108328716
30
0
11
90.85753455441656
21
-82.440972896763384
31
0
0
LINE
5
143
100
AcDbEntity
8
0
100
AcDbLine
10
-22.264248134073217
20
-91.908496721026353
30
0
11
-21.866676055731553
21
-91.908496721026353
31
0
0
LINE
5
144
100
AcDbEntity
8
0
100
AcDbLine
10
-21.469103977389878
20
-92.28122054447168
30
0
11
-21.469103977389878
21
-92.653944367916978
31
0
0
LINE
5
145
100
AcDbEntity
8
0
100
AcDbLine
10
99.66866113172614
20
-86.908949916698575
30
0
11
100.32649741794467
21
-89.364028359928597
31
0
0
LINE
5
146
100
AcDbEntity
8
0
100
AcDbLine
10
98.969952943525215
20
-87.124679837494142
30
0
11
99.319307409995673
21
-87.016816266800106
31
0
0
LINE
5
147
100
AcDbEntity
8
0
100
AcDbLine
10
89.537376015761083
20
-83.160762914106826
30
0
11
89.445862365003677
21
-82.819229319894021
31
0
0
LINE
5
148
100
AcDbEntity
8
0
100
AcDbLine
10
97.882716133423315
20
-85.890401201160515
30
0
11
97.972750730547901
21
-86.226414892068405
31
0
0
LINE
5
149
100
AcDbEntity
8
0
100
AcDbLine
10
89.742444989729236
20
-89.572779501663561
30
0
11
89.833958640486657
21
-89.914313095876366
31
0
0
LINE
5
150
100
AcDbEntity
8
0
100
AcDbLine
10
100.14929805442158
20
-94.349400089843044
30
0
11
100.43604082679482
21
-95.419538685043136
31
0
0
LINE
5
151
100
AcDbEntity
8
0
100
AcDbLine
10
89.925472291244063
20
-90.255846690089129
30
0
11
90.289774791737727
21
-90.158232129281231
31
0
0
LINE
5
152
100
AcDbEntity
8
0
100
AcDbLine
10
-24.58188933547018
20
-98.301432202862756
30
0
11
-24.613491086402519
21
-98.070863935322308
31
0
0
LINE
5
153
100
AcDbEntity
8
0
100
AcDbLine
10
98.404320411365248
20
-86.470920491033894
30
0
11
98.745854005578039
21
-86.379406840276459
31
0
0
LINE
5
154
100
AcDbEntity
8
0
100
AcDbLine
10
89.799949885162121
20
-86.872970689153902
30
0
11
88.945822478092893
21
-83.685323809834472
31
0
0
LINE
5
155
100
AcDbEntity
8
0
100
AcDbLine
10
88.52775402446818
20
-92.143389863440603
30
0
11
88.163451523974544
21
-92.241004424248501
31
0
0
SPLINE
5
156
100
AcDbEntity
8
0
100
AcDbSpline
70
4
71
3
72
8
73
4
74
0
42
0.000000001
43
0.0000000001
44
0.0000000001
40
0
40
0
40
0
40
0
40
1
40
1
40
1
40
1
41
1
41
1
41
1
41
1
10
-22.177279241935981
20
-94.202107124154708
30
0
10
-22.976771539902778
20
-94.206271754766604
30
0
10
-23.664446690835959
20
-94.211862005471431
30
0
10
-23.705446918061803
20
-94.214531251602892
30
0
0
LINE
5
157
100
AcDbEntity
8
0
100
AcDbLine
10
90.94904820517398
20
-82.782506490976161
30
0
11
91.040561855931387
21
-83.124040085188966
31
0
0
LINE
5
158
100
AcDbEntity
8
0
100
AcDbLine
10
-21.469103977389878
20
-91.908496721026353
30
0
11
-21.469103977389878
21
-92.28122054447168
31
0
0
LINE
5
159
100
AcDbEntity
8
0
100
AcDbLine
10
97.170834219354987
20
-97.441419248120354
30
0
11
93.618884839541906
21
-98.393161215997509
31
0
0
LINE
5
160
100
AcDbEntity
8
0
100
AcDbLine
10
96.380859705982559
20
-86.00088136049267
30
0
11
96.464596029535471
21
-86.200034218747845
31
0
0
LINE
5
161
100
AcDbEntity
8
0
100
AcDbLine
10
88.672306394529144
20
-89.859522274036792
30
0
11
89.742444989729236
21
-89.572779501663561
31
0
0
LINE
5
162
100
AcDbEntity
8
0
100
AcDbLine
10
100.27275792793355
20
-92.077889856783472
30
0
11
100.55256195776036
21
-93.122132712259599
31
0
0
LINE
5
163
100
AcDbEntity
8
0
100
AcDbLine
10
96.464596029535471
20
-86.200034218747845
30
0
11
97.173656081479407
21
-86.045217709954173
31
0
0
LINE
5
164
100
AcDbEntity
8
0
100
AcDbLine
10
100.32649741794467
20
-89.364028359928597
30
0
11
100.98433295942321
21
-91.819104023751109
31
0
0
LINE
5
165
100
AcDbEntity
8
0
100
AcDbLine
10
97.972750730547901
20
-86.226414892068405
30
0
11
98.062786817152443
21
-86.5624341417913
31
0
0
LINE
5
166
100
AcDbEntity
8
0
100
AcDbLine
10
99.319307409995673
20
-87.016816266800106
30
0
11
99.66866113172614
21
-86.908949916698575
31
0
0
LINE
5
167
100
AcDbEntity
8
0
100
AcDbLine
10
100.49083164863438
20
-94.257886439085624
30
0
11
100.14929805442158
21
-94.349400089843044
31
0
0
LINE
5
168
100
AcDbEntity
8
0
100
AcDbLine
10
100.72278359916807
20
-96.489677280243228
30
0
11
97.170834219354987
21
-97.441419248120354
31
0
0
LINE
5
169
100
AcDbEntity
8
0
100
AcDbLine
10
100.55256195776036
20
-93.122132712259599
30
0
11
100.83236524284716
21
-94.166372788328218
31
0
0
LINE
5
170
100
AcDbEntity
8
0
100
AcDbLine
10
97.173656081479407
20
-86.045217709954173
30
0
11
97.882716133423315
21
-85.890401201160515
31
0
0
LINE
5
171
100
AcDbEntity
8
0
100
AcDbLine
10
-26.140575897904554
20
-94.989680328174316
30
0
11
-26.513299721349874
21
-94.989680328174316
31
0
0
LINE
5
172
100
AcDbEntity
8
0
100
AcDbLine
10
-26.513299721349874
20
-87.237024800511676
30
0
11
-26.140575897904547
21
-87.237024800511676
31
0
0
LINE
5
173
100
AcDbEntity
8
0
100
AcDbLine
10
-28.053891524923856
20
-85.696432996937688
30
0
11
-27.681167701478529
21
-85.696432996937688
31
0
0
LINE
5
174
100
AcDbEntity
8
0
100
AcDbLine
10
-28.436948060808682
20
-96.915420082641802
30
0
11
-28.45146360326553
21
-97.300568033535313
31
0
0
LINE
5
175
100
AcDbEntity
8
0
100
AcDbLine
10
-26.140575897904547
20
-87.237024800511676
30
0
11
-26.140575897904554
21
-87.634596878853358
31
0
0
LINE
5
176
100
AcDbEntity
8
0
100
AcDbLine
10
-27.283595623136865
20
-86.491577153621051
30
0
11
-26.886023544795201
21
-86.491577153621051
31
0
0
LINE
5
177
100
AcDbEntity
8
0
100
AcDbLine
10
-26.513299721349874
20
-94.989680328174316
30
0
11
-26.886023544795201
21
-94.989680328174316
31
0
0
LINE
5
178
100
AcDbEntity
8
0
100
AcDbLine
10
-23.794508741824821
20
-94.604532377280819
30
0
11
-23.809019734430315
21
-94.989680328174316
31
0
0
LINE
5
179
100
AcDbEntity
8
0
100
AcDbLine
10
-26.886023544795201
20
-86.864300977066364
30
0
11
-26.886023544795201
21
-87.237024800511676
31
0
0
LINE
5
180
100
AcDbEntity
8
0
100
AcDbLine
10
-22.636971957518533
20
-96.530272131748319
30
0
11
-22.264248134073217
21
-96.530272131748319
31
0
0
LINE
5
181
100
AcDbEntity
8
0
100
AcDbLine
10
-22.636971957518554
20
-98.070863935322308
30
0
11
-23.00969578096386
21
-98.070863935322308
31
0
0
LINE
5
182
100
AcDbEntity
8
0
100
AcDbLine
10
-28.422435551586076
20
-96.530272131748319
30
0
11
-28.436948060808682
21
-96.915420082641802
31
0
0
LINE
5
183
100
AcDbEntity
8
0
100
AcDbLine
10
-25.74300381956288
20
-96.530272131748319
30
0
11
-26.140575897904547
21
-96.530272131748319
31
0
0
LINE
5
184
100
AcDbEntity
8
0
100
AcDbLine
10
-26.140575897904554
20
-87.634596878853358
30
0
11
-26.140575897904554
21
-88.032168957195026
31
0
0
LINE
5
185
100
AcDbEntity
8
0
100
AcDbLine
10
-20.723656330499239
20
-94.194536171490967
30
0
11
-22.177279241935981
21
-94.202107124154708
31
0
0
LINE
5
186
100
AcDbEntity
8
0
100
AcDbLine
10
89.833958640486657
20
-89.914313095876366
30
0
11
89.925472291244063
21
-90.255846690089129
31
0
0
LINE
5
187
100
AcDbEntity
8
0
100
AcDbLine
10
-28.051800109915188
20
-96.530272131748319
30
0
11
-28.422435551586076
21
-96.530272131748319
31
0
0
LINE
5
188
100
AcDbEntity
8
0
100
AcDbLine
10
-23.00969578096386
20
-94.989680328174316
30
0
11
-23.00969578096386
21
-95.759976229961325
31
0
0
LINE
5
189
100
AcDbEntity
8
0
100
AcDbLine
10
-24.550287584537848
20
-98.866008092005643
30
0
11
-24.550287584537848
21
-98.699004281204438
31
0
0
LINE
5
190
100
AcDbEntity
8
0
100
AcDbLine
10
-26.886023544795201
20
-86.491577153621051
30
0
11
-26.886023544795201
21
-86.864300977066364
31
0
0
LINE
5
191
100
AcDbEntity
8
0
100
AcDbLine
10
-24.575135839434203
20
-98.046015680425938
30
0
11
-24.960283790327704
21
-98.060526673031433
31
0
0
LINE
5
192
100
AcDbEntity
8
0
100
AcDbLine
10
-28.426615348369175
20
-84.950985350047063
30
0
11
-28.426615348369175
21
-85.323709173492375
31
0
0
LINE
5
193
100
AcDbEntity
8
0
100
AcDbLine
10
-24.960283790327704
20
-98.060526673031433
30
0
11
-25.345431741221198
21
-98.075043732105399
31
0
0
LINE
5
194
100
AcDbEntity
8
0
100
AcDbLine
10
-23.804839937647209
20
-90.36790491745235
30
0
11
-23.407267859305534
21
-90.367904917452364
31
0
0
LINE
5
195
100
AcDbEntity
8
0
100
AcDbLine
10
-29.221759505052528
20
-84.950985350047063
30
0
11
-28.824187426710854
21
-84.950985350047063
31
0
0
LINE
5
196
100
AcDbEntity
8
0
100
AcDbLine
10
-27.681167701478529
20
-85.696432996937688
30
0
11
-27.68116770147854
21
-86.09400507527937
31
0
0
LINE
5
197
100
AcDbEntity
8
0
100
AcDbLine
10
-25.345431741221198
20
-96.530272131748305
30
0
11
-25.74300381956288
21
-96.530272131748319
31
0
0
LINE
5
198
100
AcDbEntity
8
0
100
AcDbLine
10
-20.723656330499239
20
-92.653944367916978
30
0
11
-20.723656330499239
21
-93.424240269703986
31
0
0
LINE
5
199
100
AcDbEntity
8
0
100
AcDbLine
10
-23.779991682750861
20
-98.866008092005643
30
0
11
-24.550287584537848
21
-98.866008092005643
31
0
0
LINE
5
200
100
AcDbEntity
8
0
100
AcDbLine
10
-23.00969578096386
20
-95.759976229961325
30
0
11
-23.00969578096386
21
-96.530272131748319
31
0
0
LINE
5
201
100
AcDbEntity
8
0
100
AcDbLine
10
-28.45146360326553
20
-97.300568033535313
30
0
11
-29.209335377604347
21
-97.31428431876985
31
0
0
LINE
5
202
100
AcDbEntity
8
0
100
AcDbLine
10
-29.967207151943164
20
-90.741920898684043
30
0
11
-29.967207151943164
21
-84.155841193363713
31
0
0
LINE
5
203
100
AcDbEntity
8
0
100
AcDbLine
10
-29.209335377604347
20
-97.31428431876985
30
0
11
-29.967207151943164
21
-97.32800667047286
31
0
0
LINE
5
204
100
AcDbEntity
8
0
100
AcDbLine
10
-27.680491290242955
20
-96.269365455336583
30
0
11
-27.68116770147854
21
-96.530272131748305
31
0
0
LINE
5
205
100
AcDbEntity
8
0
100
AcDbLine
10
-23.809019734430315
20
-94.989680328174316
30
0
11
-23.409360790931331
21
-94.989680328174316
31
0
0
LINE
5
206
100
AcDbEntity
8
0
100
AcDbLine
10
-23.00969578096386
20
-90.740628740897677
30
0
11
-23.00969578096386
21
-91.113352564343003
31
0
0
LINE
5
207
100
AcDbEntity
8
0
100
AcDbLine
10
-22.264248134073217
20
-98.070863935322308
30
0
11
-22.636971957518554
21
-98.070863935322308
31
0
0
LINE
5
208
100
AcDbEntity
8
0
100
AcDbLine
10
-28.426615348369175
20
-85.696432996937688
30
0
11
-28.053891524923856
21
-85.696432996937688
31
0
0
LINE
5
209
100
AcDbEntity
8
0
100
AcDbLine
10
-23.409360790931331
20
-94.989680328174316
30
0
11
-23.00969578096386
21
-94.989680328174316
31
0
0
LINE
5
210
100
AcDbEntity
8
0
100
AcDbLine
10
-27.68116770147854
20
-86.09400507527937
30
0
11
-27.68116770147854
21
-86.491577153621051
31
0
0
LINE
5
211
100
AcDbEntity
8
0
100
AcDbLine
10
-26.886023544795201
20
-95.387252406515998
30
0
11
-26.886023544795201
21
-95.784824484857666
31
0
0
LINE
5
212
100
AcDbEntity
8
0
100
AcDbLine
10
98.745854005578039
20
-86.379406840276459
30
0
11
98.837367656335459
21
-86.720940434489279
31
0
0
SPLINE
5
213
100
AcDbEntity
8
0
100
AcDbSpline
70
4
71
3
72
8
73
4
74
0
42
0.000000001
43
0.0000000001
44
0.0000000001
40
0
40
0
40
0
40
0
40
1
40
1
40
1
40
1
41
1
41
1
41
1
41
1
10
-27.252952374224463
20
-95.784824484857666
30
0
10
-27.672281841771643
20
-95.784824484857666
30
0
10
-27.679249180821568
20
-95.79272302681936
30
0
10
-27.680491290242955
20
-96.269365455336583
30
0
0
LINE
5
214
100
AcDbEntity
8
0
100
AcDbLine
10
-29.594483328497837
20
-84.155841193363713
30
0
11
-29.221759505052528
21
-84.155841193363713
31
0
0
LINE
5
215
100
AcDbEntity
8
0
100
AcDbLine
10
-22.264248134073217
20
-96.530272131748319
30
0
11
-22.264248134073217
21
-97.300568033535313
31
0
0
LINE
5
216
100
AcDbEntity
8
0
100
AcDbLine
10
-23.00969578096386
20
-98.866008092005643
30
0
11
-23.779991682750861
21
-98.866008092005643
31
0
0
LINE
5
217
100
AcDbEntity
8
0
100
AcDbLine
10
-27.68116770147854
20
-86.491577153621051
30
0
11
-27.283595623136865
21
-86.491577153621051
31
0
0
LWPOLYLINE
5
218
100
AcDbEntity
8
0
100
AcDbPolyline
90
4
70
1
43
0.0
10
96.371132358166264
20
-88.491075359201147
10
97.403800878890536
20
-88.214372663024051
10
98.971782823894202
20
-94.066160947128324
10
97.93911430316993
20
-94.342863643305449
0
LINE
5
219
100
AcDbEntity
8
0
100
AcDbLine
10
-29.221759505052528
20
-84.155841193363713
30
0
11
-29.221759505052528
21
-84.553413271705381
31
0
0
LINE
5
220
100
AcDbEntity
8
0
100
AcDbLine
10
-29.594483328497837
20
-84.155841193363713
30
0
11
-29.209335377604347
21
-84.155841193363713
31
0
0
LINE
5
221
100
AcDbEntity
8
0
100
AcDbLine
10
-29.967207151943164
20
-97.32800667047286
30
0
11
-29.967207151943164
21
-90.741920898684043
31
0
0
LINE
5
222
100
AcDbEntity
8
0
100
AcDbLine
10
92.093761565338923
20
-87.054634911214649
30
0
11
96.380859705982559
21
-86.00088136049267
31
0
0
LINE
5
223
100
AcDbEntity
8
0
100
AcDbLine
10
-24.170810265056552
20
-89.572760760769015
30
0
11
-23.804839937647209
21
-89.572760760769015
31
0
0
LINE
5
224
100
AcDbEntity
8
0
100
AcDbLine
10
91.040561855931387
20
-83.124040085188966
30
0
11
92.093761565338923
21
-87.054634911214649
31
0
0
SPLINE
5
225
100
AcDbEntity
8
0
100
AcDbSpline
70
4
71
3
72
8
73
4
74
0
42
0.000000001
43
0.0000000001
44
0.0000000001
40
0
40
0
40
0
40
0
40
1
40
1
40
1
40
1
41
1
41
1
41
1
41
1
10
-22.264248134073217
20
-91.480759128165104
30
0
10
-22.264248134073217
20
-91.729645097282614
30
0
10
-22.284285679464499
20
-91.855366590073658
30
0
10
-22.326368771314115
20
-91.870490295995666
30
0
0
LINE
5
226
100
AcDbEntity
8
0
100
AcDbLine
10
-25.345431741221198
20
-88.777616604085665
30
0
11
-24.972707917775885
21
-88.777616604085665
31
0
0
LWPOLYLINE
5
227
100
AcDbEntity
8
0
100
AcDbPolyline
90
4
70
1
43
0.0
10
96.906445782445616
20
-94.61956633948256
10
95.873777261721344
20
-94.896269035659685
10
94.305795316717678
20
-89.044480751555398
10
95.338463837441964
20
-88.767778055378272
0
LINE
5
228
100
AcDbEntity
8
0
100
AcDbLine
10
-26.140575897904547
20
-96.530272131748319
30
0
11
-26.140575897904554
21
-95.759976229961325
31
0
0
LINE
5
229
100
AcDbEntity
8
0
100
AcDbLine
10
-23.00969578096386
20
-91.113352564343003
30
0
11
-22.636971957518533
21
-91.113352564343003
31
0
0
LINE
5
230
100
AcDbEntity
8
0
100
AcDbLine
10
-26.886023544795201
20
-87.237024800511676
30
0
11
-26.513299721349874
21
-87.237024800511676
31
0
0
LINE
5
231
100
AcDbEntity
8
0
100
AcDbLine
10
-22.636971957518533
20
-91.113352564343003
30
0
11
-22.264248134073217
21
-91.113352564343003
31
0
0
LINE
5
232
100
AcDbEntity
8
0
100
AcDbLine
10
-24.599984094330559
20
-88.777616604085665
30
0
11
-24.599984094330559
21
-88.94461738165262
31
0
0
LINE
5
233
100
AcDbEntity
8
0
100
AcDbLine
10
-22.264248134073217
20
-91.113352564343003
30
0
11
-22.264248134073217
21
-91.480759128165104
31
0
0
LINE
5
234
100
AcDbEntity
8
0
100
AcDbLine
10
-23.00969578096386
20
-98.46843601366399
30
0
11
-23.00969578096386
21
-98.866008092005643
31
0
0
LINE
5
235
100
AcDbEntity
8
0
100
AcDbLine
10
-23.00969578096386
20
-96.530272131748319
30
0
11
-22.636971957518533
21
-96.530272131748319
31
0
0
LINE
5
236
100
AcDbEntity
8
0
100
AcDbLine
10
-25.345431741221198
20
-98.075043732105399
30
0
11
-25.345431741221198
21
-97.302654898692609
31
0
0
LINE
5
237
100
AcDbEntity
8
0
100
AcDbLine
10
-23.407267859305534
20
-90.367904917452364
30
0
11
-23.00969578096386
21
-90.367904917452364
31
0
0
LINE
5
238
100
AcDbEntity
8
0
100
AcDbLine
10
-25.345431741221198
20
-97.302654898692609
30
0
11
-25.345431741221198
21
-96.530272131748305
31
0
0
LINE
5
239
100
AcDbEntity
8
0
100
AcDbLine
10
-27.68116770147854
20
-96.530272131748305
30
0
11
-28.051800109915188
21
-96.530272131748319
31
0
0
LINE
5
240
100
AcDbEntity
8
0
100
AcDbLine
10
-23.00969578096386
20
-98.070863935322308
30
0
11
-23.00969578096386
21
-98.46843601366399
31
0
0
LINE
5
241
100
AcDbEntity
8
0
100
AcDbLine
10
-23.804839937647209
20
-89.945484584214327
30
0
11
-23.804839937647209
21
-90.318208407659654
31
0
0
LINE
5
242
100
AcDbEntity
8
0
100
AcDbLine
10
-26.886023544795201
20
-95.784824484857666
30
0
11
-27.252952374224463
21
-95.784824484857666
31
0
0
LINE
5
243
100
AcDbEntity
8
0
100
AcDbLine
10
-28.824187426710854
20
-84.950985350047063
30
0
11
-28.426615348369175
21
-84.950985350047063
31
0
0
LINE
5
244
100
AcDbEntity
8
0
100
AcDbLine
10
-25.345431741221198
20
-88.032168957195026
30
0
11
-25.345431741221198
21
-88.404892780640353
31
0
0
LINE
5
245
100
AcDbEntity
8
0
100
AcDbLine
10
-29.967207151943164
20
-84.155841193363713
30
0
11
-29.594483328497837
21
-84.155841193363713
31
0
0
LINE
5
246
100
AcDbEntity
8
0
100
AcDbLine
10
-29.209335377604347
20
-97.31428431876985
30
0
11
-29.594483328497837
21
-97.31428431876985
31
0
0
LWPOLYLINE
5
247
100
AcDbEntity
8
0
100
AcDbPolyline
90
4
70
1
43
0.0
10
93.808440220272757
20
-95.449674428013921
10
92.240458275269091
20
-89.597886143909619
10
93.273126795993392
20
-89.321183447732508
10
94.841108740997058
20
-95.172971731836796
0
LINE
5
248
100
AcDbEntity
8
0
100
AcDbLine
10
-23.804839937647209
20
-89.572760760769015
30
0
11
-23.804839937647209
21
-89.945484584214327
31
0
0
LINE
5
249
100
AcDbEntity
8
0
100
AcDbLine
10
-24.536774525997416
20
-89.572760760769015
30
0
11
-24.170810265056552
21
-89.572760760769015
31
0
0
LINE
5
250
100
AcDbEntity
8
0
100
AcDbLine
10
-24.972707917775885
20
-88.777616604085665
30
0
11
-24.599984094330559
21
-88.777616604085665
31
0
0
LINE
5
251
100
AcDbEntity
8
0
100
AcDbLine
10
-25.714229042942478
20
-88.032168957195026
30
0
11
-25.345431741221198
21
-88.032168957195026
31
0
0
LINE
5
252
100
AcDbEntity
8
0
100
AcDbLine
10
-26.886023544795201
20
-94.989680328174316
30
0
11
-26.886023544795201
21
-95.387252406515998
31
0
0
LINE
5
253
100
AcDbEntity
8
0
100
AcDbLine
10
-22.264248134073217
20
-97.300568033535313
30
0
11
-22.264248134073217
21
-98.070863935322308
31
0
0
LINE
5
254
100
AcDbEntity
8
0
100
AcDbLine
10
-29.221759505052528
20
-84.553413271705381
30
0
11
-29.221759505052528
21
-84.950985350047063
31
0
0
LINE
5
255
100
AcDbEntity
8
0
100
AcDbLine
10
-28.426615348369175
20
-85.323709173492375
30
0
11
-28.426615348369175
21
-85.696432996937688
31
0
0
LINE
5
256
100
AcDbEntity
8
0
100
AcDbLine
10
-25.345431741221198
20
-88.404892780640353
30
0
11
-25.345431741221198
21
-88.777616604085665
31
0
0
LINE
5
257
100
AcDbEntity
8
0
100
AcDbLine
10
-24.568382343398227
20
-89.342189459994316
30
0
11
-24.536774525997416
21
-89.572760760769015
31
0
0
LINE
5
258
100
AcDbEntity
8
0
100
AcDbLine
10
-26.083027861280883
20
-88.032168957195026
30
0
11
-25.714229042942478
21
-88.032168957195026
31
0
0
LINE
5
259
100
AcDbEntity
8
0
100
AcDbLine
10
-26.140575897904554
20
-95.759976229961325
30
0
11
-26.140575897904554
21
-94.989680328174316
31
0
0
SPLINE
5
260
100
AcDbEntity
8
0
100
AcDbSpline
70
4
71
3
72
8
73
4
74
0
42
0.000000001
43
0.0000000001
44
0.0000000001
40
0
40
0
40
0
40
0
40
1
40
1
40
1
40
1
41
1
41
1
41
1
41
1
10
-24.599984094330559
20
-88.94461738165262
30
0
10
-24.599984094330559
20
-89.036466747682468
30
0
10
-24.585761258977897
20
-89.21537296964253
30
0
10
-24.568382343398227
20
-89.342189459994316
30
0
0
LINE
5
261
100
AcDbEntity
8
0
100
AcDbLine
10
-23.00969578096386
20
-90.367904917452364
30
0
11
-23.00969578096386
21
-90.740628740897677
31
0
0
ENDSEC
0
SECTION
2
OBJECTS
0
DICTIONARY
5
C
100
AcDbDictionary
3
ACAD_GROUP
350
D
3
ACAD_MLINESTYLE
350
17
0
DICTIONARY
5
D
100
AcDbDictionary
0
DICTIONARY
5
1A
330
C
100
AcDbDictionary
0
DICTIONARY
5
17
100
AcDbDictionary
0
ENDSEC
0
EOF
